Song name
# A B C D E F G H I J K L M N O P Q R S T U V W X Y Z

Fleetwood Mac - Mystified tab

Help us improve GuitareTab! Take a short survey!
      Cm7  x35343


Cm7        Dm
Oh pretty baby
     Cm7                  Dm
This feeling I just can't hide
Dm         Cm7    Dm
You got me mystified
Cm7       Dm
Oh pretty darling
Cm7                  Dm
This feeling is deep inside
Dm         Cm7    Dm
You got me mystified
    Cm         Dm     D#
The light that shines around you
Cm        Dm D#
It blinds my eyes
Cm        Dm    D#
There's a magic surrounds you
        Bb                Dm
Tell me where your secret lies
Cm7       Dm
Oh pretty darling
Cm7                  Dm
This feeling is deep inside
Dm         Cm7    Dm
You got me mystified


e|--------6-5-----------6-6-h8-5---------------------------------------------|
B|-6-6-h8-----8-6-6-8-8----------6-6-8-8---8-8-8-8-8-10-8--------------------|
G|--------------------------------------------------------10-7-7-7-7-5-3-5---|
D|---------------------------------------------------------------------------|
A|---------------------------------------------------------------------------|
E|---------------------------------------------------------------------------|

e|---------------------------------------------------------------------------|
B|---------------------------------------------------------------------------|
G|--------3-5-3--------------------------------------------------------------|
D|-3-3-5---------------------------------------------------------------------|
A|---------------------------------------------------------------------------|
E|---------------------------------------------------------------------------|


Cm7        Dm
Oh pretty baby
This feeling I just can't hide
You got me mystified
You got me mystified
Mystified
Mystified
Mystified
Mystified
Related for Mystified tab