Song name
# A B C D E F G H I J K L M N O P Q R S T U V W X Y Z

Fleetwood Mac - Coming Your Way tab

               COMING YOUR WAY

Fleetwood Mac (Then Play On album)
Written by Danny Kirwan
Tabbed by clear and blue @ UG

quite like this song with the harmonies between green and kirwan so i thought id tab it out. 


INTRO


                                               ^         ^         
     W                   W                   S Q.      S H         
E||-------------------|-------------------|----7---------7--------|
B||-------------------|-------------------|----8~--------7--------|
G||-------------------|-------------------|----9---------7--------|   Danny Kirwan
D||-------------------|-------------------|----9---------9--------|
A||-------------------|-------------------|----7---------9--------|
E||-------------------|-------------------|--------------7--------|

      ^        ^                                                 
     S Q.     S H           W                   W                 
E||----2--------0--------|--L----------------|-------------------|
B||----3--------0--------|--L----------------|-------------------|
G||----4--------0--------|--L----------------|-------------------| Peter Green
D||----4--------2--------|--L----------------|-------------------|
A||----2--------2--------|--L----------------|-------------------|
E||-------------0--------|--L----------------|-------------------|



Then rest for a few bars of crazy drums to get you in the mood . . 




  E  E   E   E    H            E   E    E   E  H           
----------------------------|-----------------------------|
---------7--10S--12~--------|-----12S--10S--7-------------|
-----9b---------------------|------------------9b~--------|   Danny Kirwan
----------------------------|-----------------------------|
----------------------------|-----------------------------|
----------------------------|-----------------------------|

---------------------------|-------------------------|
---------7--10-------------|-------------------------|
-----9b---------9b~--------|-----9p--7---------------|
---------------------------|------------9--9~--------|
---------------------------|-------------------------|     Peter Green
---------------------------|-------------------------|





  E  E   E   E    H            E   E    E   E  H           
----------------------------|-----------------------------|
---------7--10S--12~--------|-----12S--10S--7-------------|
-----9b---------------------|------------------9b~--------|
----------------------------|-----------------------------|  DANNY KIRWAN
----------------------------|-----------------------------|
----------------------------|-----------------------------|

  E  E   E   E  H             E  E   E  E  H                      
---------------------------|-------------------------|
---------7--10-------------|-------------------------|
-----9b---------9b~--------|-----9p--7---------------|   PETER GREEN
---------------------------|------------9--9~--------|
---------------------------|-------------------------|
---------------------------|-------------------------|





  E  Q      E     H             E  E   H.              
---------------9g10~--------|--10--9------------------|
----------------------------|---------10b~------------|
-----9br----7---------------|-------------------------|
----------------------------|-------------------------|   DANNY KIRWAN
----------------------------|-------------------------|
----------------------------|-------------------------|

-------------------------|-------------------------|
-------------------------|---------7---------------|
-----9br----7--9~--------|--7S--9-----7------------|   PETER GREEN
-------------------------|---------------9~--------|
-------------------------|-------------------------|
-------------------------|-------------------------|





  E  Q      E     H             E  E   H.              
---------------9g10~--------|--10--9------------------|
----------------------------|---------10b~------------|
-----9br----7---------------|-------------------------|   DANNY KIRWAN
----------------------------|-------------------------|
----------------------------|-------------------------|
----------------------------|-------------------------|

  E  Q      E  H            E   E  E  E  H          
-------------------------|-------------------------|
-------------------------|---------7---------------|
-----9br----7--9~--------|--7S--9-----7------------|
-------------------------|---------------9~--------|    PETER GREEN
-------------------------|-------------------------|
-------------------------|-------------------------|





  E  E   E   E    H            E   E    E   E  H           
----------------------------|-----------------------------|
---------7--10S--12~--------|-----12S--10S--7-------------|
-----9b---------------------|------------------9b~--------|
----------------------------|-----------------------------| DANNY KIRWAN
----------------------------|-----------------------------|
----------------------------|-----------------------------|

---------------------------|-------------------------|
---------7--10-------------|-------------------------|
-----9b---------9b~--------|-----9p--7---------------|
---------------------------|------------9--9~--------|    PETER GREEN
---------------------------|-------------------------|
---------------------------|-------------------------|



  E  E   E   E    H            E   E    E   E  H           
----------------------------|-----------------------------|
---------7--10S--12~--------|-----12S--10S--7-------------|
-----9b---------------------|------------------9b~--------|
----------------------------|-----------------------------| DANNY KIRWAN
----------------------------|-----------------------------|
----------------------------|-----------------------------|

--------------------------|-------------------------|
---------7--10-------------|-------------------------|
-----9b---------9b~--------|-----9p--7---------------|
---------------------------|------------9--9~--------| PETER GREEN
---------------------------|-------------------------|
---------------------------|-------------------------|





  E  Q      E     H             E  E   H.              
---------------9g10~--------|--10--9------------------|
----------------------------|---------10b~------------|
-----9br----7---------------|-------------------------|   DANNY KIRWAN
----------------------------|-------------------------|
----------------------------|-------------------------|
----------------------------|-------------------------|

 E  Q      E  H            E   E  E  E  H          
-------------------------|-------------------------|
-------------------------|---------7---------------|
-----9br----7--9~--------|--7S--9-----7------------|
-------------------------|---------------9~--------|    PETER GREEN
-------------------------|-------------------------|
-------------------------|-------------------------|



 At this point Green takes over to play more or less what Danny was playing through the verse.



Then they both play the verse together like shown above. 



Then for the solo, one guitar plays a sort of backing to it which repeats: 

  H         H            H         H            H         H          
----------------------|----------------------|----------------------|
----------------------|----------------------|--3~--------2~--------|
----------------------|------------4~--------|----------------------|
----------------------|--4~------------------|----------------------|
--2~--------5~--------|----------------------|----------------------|
----------------------|----------------------|----------------------|


  W                       
--------------------|
--------------------|
--4~----------------|
--------------------|
--------------------|
--------------------|



The actual solo is:



|----------------------|
|----------------------|
|------------7~--------|
|--9~------------------|
|----------------------|
|----------------------|


                             ^                       
  H         H            E   Q.        E  E  E   E   
------------7~--------|--7--10b~------10--7---------|
--7~------------------|-----------------------------|
----------------------|----------------------9b--9--|
----------------------|-----------------------------|
----------------------|-----------------------------|
----------------------|-----------------------------|


  E  E  E  H          E     E   E   H          Q     
-------------------------|--------------------------|
-------------------------|--7--10--10b~--------L----|
--7-----7--9b~--------L--|--------------------------|
-----9-------------------|--------------------------|
-------------------------|--------------------------|
-------------------------|--------------------------|


   E    E  E  Q      E  Q        H         E   E   E   E   
------------------------------|-----------------------10--|
--10b--10--7------------------|---------------10--12------|
--------------9br----9--7~----|-----------11--------------|
------------------------------|---------------------------|
------------------------------|---------------------------|
------------------------------|---------------------------|


   W                      Q.        E   E   Q      E   
--12b~----------------|--14b~------14--12--10br----7--|
----------------------|-------------------------------|
----------------------|-------------------------------|
----------------------|-------------------------------|
----------------------|-------------------------------|
----------------------|-------------------------------|


                           ^                 ^           
  E   H          Q.        E   E  E    E  E  E  E    E   
------------------------|--7-----------------7----------|
--7--10b~---------------|--7--10-------------7----------|
------------------------|--7------9br--7-----7--9br--7--|
------------------------|--9-----------------9----------|
------------------------|-------------------------------|
------------------------|-------------------------------|


  E  E  E  E   E  E  Q        E  E  E  H         E     
---------------------------|--------------------------|
---------------------------|--------------------------|
--9-----7------------------|-----------4~--------9b~--|
-----9---------------------|--------4-----------------|
-----------9S--7-----5~----|--2--5--------------------|
------------------7--------|--------------------------|


  H        H           E   H           E  E  E   
--------------------|-----10b~--------10--7-----|
--------------------|--7---------------------7--|
--L-----------------|---------------------------|
--------------------|---------------------------|
--------------------|---------------------------|
--------------------|---------------------------|


  E   E  Q.      Q.          Q        Q        Q        Q        
-------------------------|--------------------------------------|
-------------------------|--------------------------------------|
--9b--9--7~------9b------|--(9)br----(9)br----(9)br----(9)br----|
-------------------------|--------------------------------------|
-------------------------|--------------------------------------|
-------------------------|--------------------------------------|


  W                      H          E   E   E   E   
---------------------|--------------7-------7------|
---------------------|--10b~-----------10b-----10--|
--9b~----------------|-----------------------------|
---------------------|-----------------------------|
---------------------|-----------------------------|
---------------------|-----------------------------|


  E  E  E  H         E     E   Q       E  E   E  E  E    
------------------------|-----10b~----10----------------|
--7---------------------|--7----------------------------|
-----9--7--7~-----------|-----------------9b--9--7------|
------------------------|---------------------------9~--|
------------------------|-------------------------------|
------------------------|-------------------------------|


  E   E   E  H         E     E   E   E  H         E   
---------10--7~-----------|---------10--7~-----------|
--7--10-------------------|--7--10-------------------|
--------------------------|--------------------------|
--------------------------|--------------------------|
--------------------------|--------------------------|
--------------------------|--------------------------|


   H          H           E   E  E  E  E  E  E   E   
--12b~-----------------|--7-------------------------|
-----------------------|-----10--7------------------|
-----------------------|------------9--7------------|
-----------------------|---------------------9~--L--|
-----------------------|------------------9---------|
-----------------------|----------------------------|


Well thats it. enjoy



Duration Legend
---------------
W - whole
H - half
Q - quarter
E - 8th
S - 16th
T - 32nd
X - 64th
. - note dotted
|-n-|  - n-tuplets


Tablature Legend
----------------
L - tied note
x - dead note
g - grace note
(n) - ghost note
> - accentuded note
NH - natural harmonic
AH - artificial harmonic
TH - tapped harmonic
SH - semi harmonic
PH - pitch harmonic
h - hammer on
p - pull off
b - bend
br - bendRelease
pb - preBend
pbr - preBendRelease
brb - bendReleaseBend
\n/ - tremolo bar dip
\n - tremolo bar dive
-/n - tremolo bar Release up
/n\ - tremolo bar inverted dip
/n - tremolo bar return
-\n - tremolo bar Release down
S - shift slide
s - legato slide
/ -  slide into from below or out of upwards
\ -  slide into from above or out of downwards
~ - vibrato
W - wide vibrato
tr - trill
TP - tremolo picking
T - tapping
S - slap
P - pop
< - fade in
^ - brush up
v - brush down
Tap to rate this tab
 
# A B C D E F G H I J K L M N O P Q R S T U V W X Y Z