Song name
# A B C D E F G H I J K L M N O P Q R S T U V W X Y Z

Fleetwood Mac - Isnt It Midnight chords

Highlighted       Show chord diagrams


Em       D        Em
So cool, calm and collected
Em        D               Em
You had a style, a rakish style
Em      D                Em
Well my poor heart never connected
Em            D          Em
You'd stay so long on my mind

Bm                      G      A                 Bm       
Well, isn't it midnight on the other side of the world
Bm             G    A                Bm
Do you remember the face of a pretty girl
G   A                Bm
The face of a pretty girl

Em      D            Em
Looking back so long ago
Em                 D                     Em                         
You had a knack, a knack of making women know
Em  D                Em
Ooh there wasn't the time
Em     D                  Em
And I knew you'd never be mine

Bm                      G      A                 Bm
Well, isn't it midnight on the other side of the world
Bm             G    A                Bm
Do you remember the face of a pretty girl
G   A                Bm
The face of a pretty girl
The face of a pretty girl


e|--2-------------2-----------------------------------------------|
B|-----5b--3-5------3-5-5b----5-5-5-5-5-5-3-3-3-5/-7-5-3-5--------|
G|----------------------------------------------------------4-----|
D|----------------------------------------------------------------|
A|----------------------------------------------------------------|
E|----------------------------------------------------------------|

e|--19-19-19-19-20-19------19---------------15--------------------|
B|-----------------------22-----20-15-15-h17---17-15-h17----------|
G|----------------------------------------------------------------|
D|----------------------------------------------------------------|
A|----------------------------------------------------------------|
E|----------------------------------------------------------------|

e|--------15-----15-15-15-14-15-14-15-14--------------------------|
B|--17-17-----17-----------------------------------17-15-17-------|
G|----------------------------------------------------------16----|
D|----------------------------------------------------------------|
A|----------------------------------------------------------------|
E|----------------------------------------------------------------|


Bm                G      A                 Bm
Isn't it midnight on the other side of the world
Bm             G    A                Bm
Do you remember the face of a pretty girl
G   A                Bm
The face of a pretty girl
The face of a pretty girl
Tap to rate this tab
# A B C D E F G H I J K L M N O P Q R S T U V W X Y Z