Song name
# A B C D E F G H I J K L M N O P Q R S T U V W X Y Z

Fleetwood Mac - Need Your Love So Bad tab

----------------------------------------------------------------------------
		                  Need Your Love So Bad - Fleetwood Mac
----------------------------------------------------------------------------
Tabbed by:ScottBick
Email:scottbick13@hotmail.co.uk

This is my 1st tab so it mite not be great but I think it sounds similar to the original.
You should get the timing pretty easily from the track itself.
Hope you like it.
 
Scott Bickerstaff

Tuning:Standard

e|-------------------[-]---------------------------------------------------|
B|----------10--12b--[-]--------10-12hp------10----------------------------|
G|---9--11-----------[-]---11------------11------11------------------------|
D|-------------------[-]---------------------------------------------------|
A|-------------------[-]---------------------------------------------------|
E|-------------------[-]---------------------------------------------------|

e|-------------------------------------------------------------------------|
B|---------------10--12------10~-------------------------------------------|
G|---9--9--9/11----------11------------------------------------------------|
D|-------------------------------------------------------------------------|
A|-------------------------------------------------------------------------|
E|-------------------------------------------------------------------------|

e|-------------------------------------------------------------------------|
B|---------10--13b--12b--10------12b--10~----------------------------------|
G|---9/11--------------------11--------------------------------------------|
D|-------------------------------------------------------------------------|
A|-------------------------------------------------------------------------|
E|-------------------------------------------------------------------------|

e|------------12b-hold-----------------------------------------------------|
B|---12b-------------------12b--12p10h12-----------------------------------|
G|-------------------------------------------------------------------------|
D|-------------------------------------------------------------------------|
A|-------------------------------------------------------------------------|
E|-------------------------------------------------------------------------|

e|-------------------------------------------------------------------------|
B|-------10h12p10------10----12b--12--10~----------------------------------|
G|---11------------11------------------------------------------------------|
D|-------------------------------------------------------------------------|
A|-------------------------------------------------------------------------|
E|-------------------------------------------------------------------------|


| /  slide up
| \  slide down
| h  hammer-on
| p  pull-off
| ~  vibrato
| [-]rest
============================================================================
Tap to rate this tab
 
# A B C D E F G H I J K L M N O P Q R S T U V W X Y Z