Song name
# A B C D E F G H I J K L M N O P Q R S T U V W X Y Z

Fleetwood Mac - Man Of The World tab

Beautiful song, quite difficult initially but plays beautifully once you've got the hang of it


E-2--5-3-2-3-2--|-5--------------|-5-----3-----5--3-|-2----------2---|
B---------------|-----2-2--------|-----3------------|-----3-3--------|
G---------------|---2----2---2---|---3-------3------|---2-----2------|
D-0-------------|-2--------2-----|-3-------3--------|-0---------0---0|
A---------------|----------------|------------------|----------------|
E---------------|----------------|------------------|----------------|

E----5-3-2-3-2--|-5--------------|--0--3--2--0------|--2-------------|
B---------------|------2-2-------|------------------|--3-------------|
G---------------|---2------2---2-|------------------|--4-------------|
D-0--0----------|-2----------2---|------------------|--4-------------|
A---------------|----------------|--2---------------|--2-------------|
E---------------|----------------|------------------|--2-------------|

E----2-0---0/2-2|
B---3---3-3-----|
G--2-----2------|
D-0-------------|
A---------------|
E---------------|
Tap to rate this tab
# A B C D E F G H I J K L M N O P Q R S T U V W X Y Z