Song name
# A B C D E F G H I J K L M N O P Q R S T U V W X Y Z

Fleetwood Mac - Running Through The Garden tab

Fleetwood Mac - Running Through the Garden

Guitar solos

Tuning: Standard (although the song sounds like it may be about a quarter
step flat)

There aren't many tabs for these solos, and I thought I'd tab them out.
The tuning sounds a bit lower than standard, so it may sound a little off if you play along.
This is also my first tab, tell me what you think.

Key:
b = bend
h = hammer-on
p = pull-off
tr = tremolo pick
17b19b17 = bend up, then release back down
/ = slide up
\ = slide down
17b19 b19 = pick while bent
~ = vibrato


Solo 1 (2:33)

e---------------------------------------------------------10h12---10p7h10---|
B---------------------8~------8--10-10b12-b10b12b10p8h10--------------------|
G----9-9-7-9---9-7-9-------9------------------------------------------------|
D---------------------------------------------------------------------------|
A---------------------------------------------------------------------------|
E---------------------------------------------------------------------------|

e----------------------------------------------------------------------------|
B-10p8h10--10p8-7--8p7----------------------------10b11b10p8---8-10b11b10b11-|
G----------------------7~---9b11b9p7---7h9p7---7-------------9---------------|
D------------------------------------9-------9-------------------------------|
A----------------------------------------------------------------------------|
E----------------------------------------------------------------------------|

                  (pick while bent)
e--------------10b12-b12-b12--10b12--b10p7h10----12-12b14-10~-----17b19-----|
B--b10p8--------------------------------------------------------------------|
G--------9~-----------------------------------------------------------------|
D---------------------------------------------------------------------------|
A---------------------------------------------------------------------------|
E---------------------------------------------------------------------------|

e--b17p15-17-15------15-17b19b17p15-17----15---------------------12---------|
B-----------------17-------------------17----17~--------------15----12------|
G-------------------------------------------------------14b16---------14b16-|
D---------------------------------------------------------------------------|
A---------------------------------------------------------------------------|
E---------------------------------------------------------------------------|

e--------12--12----12----10-12-12b14b12p10-------------12-------------------|
B--12-15--------15----12-------------------12b10-12~------12-15p12----------|
G------------------------------------------------------------------14p12----|
D---------------------------------------------------------------------------|
A---------------------------------------------------------------------------|
E---------------------------------------------------------------------------|

e---------------------------------------------------------------------------|
B---------------------------------------------------------------------------|
G----------------12b1/4-------12b1/4----------------------------------------|
D--14p12h14~---------------------------14~~\--------------------------------|
A------------------------14-------------------------------------------------|
E---------------------------------------------------------------------------|


Solo 2 (3:50)

e--15-15-12-15---12-15-12-----15-12~---12----12---------12h15p12-17p15-12---|
B--------------------------12-------------15-----12--15---------------------|
G---------------------------------------------------------------------------|
D---------------------------------------------------------------------------|
A---------------------------------------------------------------------------|
E---------------------------------------------------------------------------|

         (pick while bent, release to 17th)
e--17b19----b19b17---15----15h17---17tr--15tr--14tr---10tr------------------|
B-----------------------17---------------------------------12tr-------------|
G---------------------------------------------------------------12tr--11tr--|
D---------------------------------------------------------------------------|
A---------------------------------------------------------------------------|
E---------------------------------------------------------------------------|

e----------15p14h15p14----14-15b17b15p14----14-15b17b15p14----14-15b17b15p14-|
B----------------------15----------------15----------------15----------------|
G--11~-----------------------------------------------------------------------|
D----------------------------------------------------------------------------|
A----------------------------------------------------------------------------|
E----------------------------------------------------------------------------|

                    (listen for rhythm)
e------------------17b19--b19--b19-b19-17b19--b19--17b19--b19---22--22b24---|
B--15-15/17~----------------------------------------------------------------|
G---------------------------------------------------------------------------|
D---------------------------------------------------------------------------|
A---------------------------------------------------------------------------|
E---------------------------------------------------------------------------|

          I'm REALLY not sure about this part, try listening to it.
e--22b24b22p19-22p19----19-------19-----------------------------------------|
B--------------------22----22b24----22p20-22b24b22-20----20-22b24b22-22b24--|
G-----------------------------------------------------19--------------------|
D---------------------------------------------------------------------------|
A---------------------------------------------------------------------------|
E---------------------------------------------------------------------------|


e--22-22b24---24b26b24b26b24-22---22-24b26b24p22----22--24b26b24p22----22----|
B-------------------------------24---------------24-----------------24-------|
G----------------------------------------------------------------------------|
D----------------------------------------------------------------------------|
A----------------------------------------------------------------------------|
E----------------------------------------------------------------------------|


e---24b26b24p22----22--24b26b24p22----22---24b26b24p22----22--24b26~--------|
B---------------24-----------------24------------------24-------------------|
G---------------------------------------------------------------------------|
D---------------------------------------------------------------------------|
A---------------------------------------------------------------------------|
E---------------------------------------------------------------------------|

  I'm not sure about this part either, you may want to listen to the song.
It starts to fade out at this point and there's some soloing going on in the
background that's practically inaudible, I won't be able to tab it.

e--24b26---24--22--19--17--15-----------------------------------------------|
B-----------------------------17-------17~----------------------------------|
G----------------------------------16---------------------------------------|
D---------------------------------------------------------------------------|
A---------------------------------------------------------------------------|
E---------------------------------------------------------------------------|

Tell me what you think!  Again, this is my first tab.
If you have any questions email me at xpertguitar23@live.com
Tap to rate this tab
 
# A B C D E F G H I J K L M N O P Q R S T U V W X Y Z