Fleetwood Mac - Storms tab

Artist: Fleetwood Mac
Song: Storms
Album: Tusk
Tuning: Standard (On the record the tune everything slightly flat but I don't ussually bother)
Capo: None

Verse:   ----2-2------2-2------3-3------3-3------------|
	 ---3---3----3---3----3---3----3---3---3--2-3--|
	 --2-----2--2-----2--0-----0--0-----0--0--2-4--|
	 -0--------0-----------------------------------|
	 ----------------------------------------0--2--|
	 -------------------3--------3--------3--------|
									
	 ------------------|
	 --3--3--3--3------|
	 --4--4--4--4------|
         ------------------|
	 -2--2---2-2--2-0--|
	 ------------------|

         ----2-2------2-2------3-3------3-3------------|
	 ---3---3----3---3----3---3----3---3---3--2-3--|
	 --2-----2--2-----2--0-----0--0-----0--0--2-4--|
	 -0--------0-----------------------------------|
	 ----------------------------------------0--2--|
	 -------------------3--------3--------3--------|
									
	 ------------------|
	 --3--3--3--3------|
	 --4--4--4--4------|
         ------------------|
	 -2--2---2-2--2-0--|
	 ------------------|
         Every night that goes between,
	 I feel a little less.
	 As you slowly go away from me,
	 This is only another test.

Verse:   ----2-2------2-2------3-3------3-3------------|
	 ---3---3----3---3----3---3----3---3---3--2-3--|
	 --2-----2--2-----2--0-----0--0-----0--0--2-4--|
	 -0--------0-----------------------------------|
	 ----------------------------------------0--2--|
	 -------------------3--------3--------3--------|
									
	 ------------------|
	 --3--3--3--3------|
	 --4--4--4--4------|
         ------------------|
	 -2--2---2-2--2-0--|
	 ------------------|
         
         ----2-2------2-2------3-3------3-3------------|
	 ---3---3----3---3----3---3----3---3---3--2-3--|
	 --2-----2--2-----2--0-----0--0-----0--0--2-4--|
	 -0--------0-----------------------------------|
	 ----------------------------------------0--2--|
	 -------------------3--------3--------3--------|
									
	 ------------------|
	 --3--3--3--3------|
	 --4--4--4--4------|
         ------------------|
	 -2--2---2-2--2-0--|
	 ------------------|
         Every night you do not come,
	 Your softness fades away.
	 Did I ever really care that much?
	 Ooh, is there anything left to say?

Chorus:   -----------------------2-------------------------------|
	  --3--3-3--3--3-3--3--3-3--3--3--3--2-3--3--3-3--3------|
	  --0--0-4--4--4-2--2--2----2--0--0--2-4--4--4-4--4------|	
	  ---------------0-0--0--0-0--0--------------------------|
	  -------2-2--2---------------------0--2-2--2--2-2--2-0--|
	  -3--3--------------------------3-----------------------|

          -----------------------2-------------------------------|
	  --3--3-3--3--3-3--3--3-3--3--3--3--2-3--3--3-3--3------|
	  --0--0-4--4--4-2--2--2----2--0--0--2-4--4--4-4--4------|	
	  ---------------0-0--0--0-0--0--------------------------|
	  -------2-2--2---------------------0--2-2--2--2-2--2-0--|
	  -3--3--------------------------3-----------------------|
          Every hour of fear I spend,
	  My body tries to cry.
	  Living through each empty night,
	  A deadly call inside.

Verse:   ----2-2------2-2------3-3------3-3------------|
	 ---3---3----3---3----3---3----3---3---3--2-3--|
	 --2-----2--2-----2--0-----0--0-----0--0--2-4--|
	 -0--------0-----------------------------------|
	 ----------------------------------------0--2--|
	 -------------------3--------3--------3--------|
									
	 ------------------|
	 --3--3--3--3------|
	 --4--4--4--4------|
         ------------------|
	 -2--2---2-2--2-0--|
	 ------------------|

         ----2-2------2-2------3-3------3-3------------|
	 ---3---3----3---3----3---3----3---3---3--2-3--|
	 --2-----2--2-----2--0-----0--0-----0--0--2-4--|
	 -0--------0-----------------------------------|
	 ----------------------------------------0--2--|
	 -------------------3--------3--------3--------|
									
	 ------------------|
	 --3--3--3--3------|
	 --4--4--4--4------|
         ------------------|
	 -2--2---2-2--2-0--|
	 ------------------|
         I havenít felt this way I feel,
	 Since many a year ago.
	 But in those years a lifetimeís past,
	 I did not deal with the road.

Verse:   ----2-2------2-2------3-3------3-3------------|
	 ---3---3----3---3----3---3----3---3---3--2-3--|
	 --2-----2--2-----2--0-----0--0-----0--0--2-4--|
	 -0--------0-----------------------------------|
	 ----------------------------------------0--2--|
	 -------------------3--------3--------3--------|
								
	 ------------------|
	 --3--3--3--3------|
	 --4--4--4--4------|
         ------------------|
	 -2--2---2-2--2-0--|
	 ------------------|

         ----2-2------2-2------3-3------3-3------------|
	 ---3---3----3---3----3---3----3---3---3--2-3--|
	 --2-----2--2-----2--0-----0--0-----0--0--2-4--|
	 -0--------0-----------------------------------|
	 ----------------------------------------0--2--|
	 -------------------3--------3--------3--------|
									
	 ------------------|
	 --3--3--3--3------|
	 --4--4--4--4------|
         ------------------|
	 -2--2---2-2--2-0--|
	 ------------------|
         And I did not deal with you I know,
	 Though the love has always been.
	 So I search to find an answer there,
	 So I can truly win.

Chorus:   -----------------------2-------------------------------|
	  --3--3-3--3--3-3--3--3-3--3--3--3--2-3--3--3-3--3------|
	  --0--0-4--4--4-2--2--2----2--0--0--2-4--4--4-4--4------|	
	  ---------------0-0--0--0-0--0--------------------------|
	  -------2-2--2---------------------0--2-2--2--2-2--2-0--|
	  -3--3--------------------------3-----------------------|

          -----------------------2-------------------------------|
	  --3--3-3--3--3-3--3--3-3--3--3--3--2-3--3--3-3--3------|
	  --0--0-4--4--4-2--2--2----2--0--0--2-4--4--4-4--4------|	
	  ---------------0-0--0--0-0--0--------------------------|
	  -------2-2--2---------------------0--2-2--2--2-2--2-0--|
	  -3--3--------------------------3-----------------------|
          Every hour of fear I spend,
	  My body tries to cry.
	  Living through each empty night,
	  A deadly call inside.

Verse:   ----2-2------2-2------3-3------3-3------------|
	 ---3---3----3---3----3---3----3---3---3--2-3--|
	 --2-----2--2-----2--0-----0--0-----0--0--2-4--|
	 -0--------0-----------------------------------|
	 ----------------------------------------0--2--|
	 -------------------3--------3--------3--------|
									
	 ------------------|
	 --3--3--3--3------|
	 --4--4--4--4------|
         ------------------|
	 -2--2---2-2--2-0--|
	 ------------------|

         ----2-2------2-2------3-3------3-3------------|
	 ---3---3----3---3----3---3----3---3---3--2-3--|
	 --2-----2--2-----2--0-----0--0-----0--0--2-4--|
	 -0--------0-----------------------------------|
	 ----------------------------------------0--2--|
	 -------------------3--------3--------3--------|
									
	 ------------------|
	 --3--3--3--3------|
	 --4--4--4--4------|
         ------------------|
	 -2--2---2-2--2-0--|
	 ------------------|
         So I try to say goodbye my friend,
	 Iíd like to leave you with something warm.
	 But never have I been a blue calm sea,
	 I have always been a storm.

Outro:   ---------------------------|
	 --3--3--2--2--3--3--3------|
	 --0--0--2--2--4--4--4------|	
	 ---------------------------|
	 -------0--0--2--2--2--2-0--|
	 -3--3----------------------|

         ---------------------------|
	 --3--3--2--2--3--3--3------|
	 --0--0--2--2--4--4--4------|	
	 ---------------------------|
	 -------0--0--2--2--2--2-0--|
	 -3--3----------------------|

         ----------------2--|
	 --3--3--2--2---3---|
	 --0--0--2--2--2----|	
	 -------------0-----|
	 -------0--0--------|
	 -3--3--------------|
	 Always been a storm.
	 Ooh. Always been a storm.
	 I have always been a storm.
Tap to rate this tab
 
# A B C D E F G H I J K L M N O P Q R S T U V W X Y Z