Fleetwood Mac - Love In Store tab

Artist: Fleetwood Mac
Song: Love in Store
Album: Mirage
Tuning: Standard
Capo: None

Intro: -----0-----1---3----|
       ----1-------1---3---|
       ---0---------2---4--|	X3
       --2-----------------|
       -3------------------|
       --------------------|

Verse: -----0-----1---3----|
       ----1-------1---3---|
       ---0---------2---4--|	X4
       --2-----------------|
       -3------------------|
       --------------------|
       All I know is the way I feel
       Whenever you're around.
       You got a way of lifting me up,
       Instead of bringing me down.

                          F        G
Chorus: You know I can't fight anymore
               F                 G
        Since you've been around, we've got love in store

Intro: -----0-----1---3----|
       ----1-------1---3---|
       ---0---------2---4--|	X3
       --2-----------------|
       -3------------------|
       --------------------|

Verse: -----0-----1---3----|
       ----1-------1---3---|
       ---0---------2---4--|	X4
       --2-----------------|
       -3------------------|
       --------------------|
       You're the only one I ever felt
       Could be special to me.
       You look at me and I just melt,
       I'm scared of feeling that way.

                          F        G
Chorus: You know I can't fight anymore
               F                 G
        Since you've been around, we've got love in store

         Dm    G         C   F G
Bridge: Never take your love away.
                     C
        Beggin' you baby,
         Dm    G         C   F G
        Never take your love away.
            C
        Oh darlin'
         Dm    G         C   F G
        Never take your love away.
Tap to rate this tab
 
# A B C D E F G H I J K L M N O P Q R S T U V W X Y Z