Song name
# A B C D E F G H I J K L M N O P Q R S T U V W X Y Z

Fleetwood Mac - Oh Well tab

-------------------------------------------------------------------------------
			     Fleetwood Mac - Oh WEll Pt.1 - solo (my version)
-------------------------------------------------------------------------------
Tabbed by:tomingham
Email:
This is the way I play the Oh well solo, I improvised it for a youtube video and got 
to TAB it, so here it is..... not particularly considered, just a few Em licks.
Tuning:Standard

e|----------------------------------------------------|-----------------------|
B|-15b17 15b17~~~ 12-------12 15p12 ------------------|-------------15-17-17~~|
G|------------------ 14b16----------14p12 ---12-------|-12 14-14/16-----------|
D|----------------------------------------14----14~~~-|-----------------------|
A|----------------------------------------------------|-----------------------|
E|----------------------------------------------------|-----------------------|

e|------17p15----15-------|---------------------------------------------------|
B|15 17-------17----17 17-|-/15p12 15p12 ---------------12--------------------|
G|------------------------|--------------14 12 14 14b16----14p12--------------|
D|------------------------|--------------------------------------14012 14~~---|
A|------------------------|---------------------------------------------------|
E|------------------------|---------------------------------------------------|

e|------------------------------------|-------------------------------12------|
B|------------------------------------|-------12 15p12 ------12----12--- 15b17|
G|----------------------------- 12 14 | 12 14----------14b16----14------------|
D|12----12----------12 10 12/14-------|---------------------------------------|
A|---14----14p12/10-------------------|---------------------------------------|
E|------------------------------------|---------------------------------------|

e|---------------------------------------------------------------------------|
B|15p12----12----------------------------------------------------------------|
G|------14----14p12----------------------------------------------------------|
D|------------------14-12~~~~~~-12h14p12h14p12-14~~~~~~~~~~~-----------------|
A|---------------------------------------------------------------------------|
E|---------------------------------------------------------------------------|




************************************

| /   slide up
| \   slide down
| h   hammer-on
| p   pull-off
| ~   vibrato
| +   harmonic
| x   Mute note
| b   Bend
| pb  Pre-bend
| br  Bend release
| pbr Pre-bend release
| brb Bend release bend

************************************
Tap to rate this tab
 
# A B C D E F G H I J K L M N O P Q R S T U V W X Y Z