Song name
# A B C D E F G H I J K L M N O P Q R S T U V W X Y Z

Fleetwood Mac - Gypsy tab

Gypsy Solo

Since there isn't a decent tab for this song's solo and there isn't much guitar in 
the rest of the song, I felt it necessary to put it up. 
It sounds cool when you get it up to speed and it's not that hard either. It's 
also probably the longest five-note solo ever. 

Standard tuning

e|--16p14-----14--16p14-----14-16p14--------16p14-----14-16p14-----14-16p14------|
B|-------16p14---------14h16--------16p14--------14h16--------14h16--------16p14-|
G|-------------------------------------------------------------------------------|
D|-------------------------------------------------------------------------------|
A|-------------------------------------------------------------------------------|
E|-------------------------------------------------------------------------------|

e|--16p14-----14--16p14-----14-16p14--------16p14---18-16p14-----14--------14----|
B|-------14h16---------14h16--------16p14--------14---------14h16--16p14-14--14--|
G|-------------------------------------------------------------------------------|
D|-------------------------------------------------------------------------------|
A|-------------------------------------------------------------------------------|
E|-------------------------------------------------------------------------------|

e|-------14-14------14-14--14-14--14-14-----14-14-----14-14-14h16p14--16p14------|
B|--14h16-----16p14------16-----14-----14h16-----16p14--------------14-----14----|
G|-------------------------------------------------------------------------------|
D|-------------------------------------------------------------------------------|
A|-------------------------------------------------------------------------------|
E|-------------------------------------------------------------------------------|

e|--18-16p14--14h16p14-----14h16p14------------14-----14-----14-----14-----14----|
B|----------14--------14h16--------16p14--14h16--14h16--14h16--14h16--14h16--14--|
G|-------------------------------------------------------------------------------|
D|-------------------------------------------------------------------------------|
A|-------------------------------------------------------------------------------|
E|-------------------------------------------------------------------------------|

e|--16p14-----14--16p14-----14--16p14------18p14h16p14-----14--16p14-----14------|
B|-------14h16--14-----14h16--14-----16p14------------14h16--14-----14h16---16---|
G|-------------------------------------------------------------------------------|
D|-------------------------------------------------------------------------------|
A|-------------------------------------------------------------------------------|
E|-------------------------------------------------------------------------------|

e|-------14--16p14------14--16p14------14--16p14------14---14-----14--------14---|
B|--14h16--14------14h16--14------14h16--14------14h16---16--14h16--16p14-14--14-|
G|-------------------------------------------------------------------------------|
D|-------------------------------------------------------------------------------|
A|-------------------------------------------------------------------------------|
E|-------------------------------------------------------------------------------|

e|---14-14--14-14--14-14--14-14--14-14--14-14--14-14--14-14--14-14--14-14--14-14--14-|
B|-16-----14-----16-----14-----16-----14-----16-----14-----16-----14-----16-----14---|
G|-----------------------------------------------------------------------------------|
D|-----------------------------------------------------------------------------------|
A|-----------------------------------------------------------------------------------|  --|
E|---------------------------------------------------------------------------| Repeat and fade out
                                                                                          |
14--14-14--14-14--14-14---|                                                               |
--16-----14-----16-----14-|                                                               |
-------------------------.|  -------------------------------------------------------------|
-------------------------.|
--------------------------|
--------------------------|



And that's it. 

************************************

| /   slide up
| \   slide down
| h   hammer-on
| p   pull-off
| ~   vibrato
| +   harmonic
| x   Mute note
| b   Bend
| pb  Pre-bend
| br  Bend release
| pbr Pre-bend release
| brb Bend release bend

************************************
Tap to rate this tab
 
# A B C D E F G H I J K L M N O P Q R S T U V W X Y Z