Song name
# A B C D E F G H I J K L M N O P Q R S T U V W X Y Z

Fleetwood Mac - Never Going Back Again tab

NEVER GOING BACK AGAIN by FLEETWOOD MAC

Standard tuning, capo on 3rd fret. 
Slightly simplified so it's easier to play and can be played fast. 
Just hold a C chord with the left hand and only move your ring and pinkie fingers.


INTRO
|E|--------------------|--3--------3--------|
|B|-----1-----0--1h----|-----1--------1-----|
|G|--------------------|--------0--------0--|
|D|-----2-----0--2h----|--------------------|
|A|--3--------------3--|--------------------|
|E|--------3-----------|--------3-----------|

|--------------------|--3--------3--------|
|-----1--0p----3--1--|-----1--------1-----|
|--------------------|--------0--------0--|
|-----2--0p----------|--------------------|
|--3--------------3--|--------------------|
|-----------3--------|--------3-----------|

|--0--------0--------|--0--------0--------|
|-----3--------3-----|-----3--------3-----|
|--------0--------0--|--------0--------0--|
|--------------------|--------------------|
|--------------------|--------------------|
|--3-----------3-----|--------3-----------|

|--0--------0--------|--0--------3--------|
|-----3--------1--3--|-----3--1-----------|
|--------0-----------|--------------------|
|--------------------|--------------------|
|--------------3-----|--------3-----------|
|--3-----------------|--3-----------3-----|


VERSES
|--------------------|--3--------3--------|
|-----1-----0--1h----|-----1--------1-----|
|--------------------|--------0--------0--|
|-----2-----0--2h----|--------------------|
|--3--------------3--|--------------------|
|--------3-----------|--------3-----------|
1. She broke down and let me in
2. You don't know what it means to win

|--------------------|--3--------3--------|
|-----1--0p----3--1--|-----1--------1-----|
|--------------------|--------0--------0--|
|-----2--0p----------|--------------------|
|--3--------------3--|--------------------|
|-----------3--------|--------3-----------|

|--0--------0--------|--0--------0--------|
|-----3--------3-----|-----3--------3-----|
|--------0--------0--|--------0--------0--|
|--------------------|--------------------|
|--------------------|--------------------|
|--3-----------3-----|--------3-----------|

|--0--------0--------|--0--------3--------|
|-----3--------1--3--|-----3--1-----------|
|--------0-----------|--------------------|
|--------------------|--------------------|
|--------------3-----|--------3-----------|
|--3-----------------|--3-----------3-----|

|--------------------|--3--------3--------|
|-----1-----0--1h----|-----1--------1-----|
|--------------------|--------0--------0--|
|-----2-----0--2h----|--------------------|
|--3--------------3--|--------------------|
|--------3-----------|--------3-----------|
1. Made me see where I've been
2. Come down and see me again

|--------------------|--3--------3--------|
|-----1--0p----3--1--|-----1--------1-----|
|--------------------|--------0--------0--|
|-----2--0p----------|--------------------|
|--3--------------3--|--------------------|
|-----------3--------|--------3-----------|

|--0--------0--------|--0--------0--------|
|-----3--------3-----|-----3--------3-----|
|--------0--------0--|--------0--------0--|
|--------------------|--------------------|
|--------------------|--------------------|
|--3-----------3-----|--------3-----------|

|--0--------0--------|--0--------3--------|
|-----3--------1--3--|-----3--1-----------|
|--------0-----------|--------------------|
|--------------------|--------------------|
|--------------3-----|--------3-----------|
|--3-----------------|--3-----------3-----|

|--------------------|--------------------|
|-----1-----0--1-----|-----1--------1-----|
|-----------------0--|--------0--------0--|
|-----2-----0--------|--------------------|
|--3-----------------|--3--------3--------|
|--------3-----------|--------------------|
                        Been there one time

|--------------------|--------------------|
|-----1-----0--1-----|-----1--------1-----|
|-----------------0--|--------0--------0--|
|-----2-----0--------|--------------------|
|--3-----------------|--3--------3--------|
|--------3-----------|--------------------|
                        Been there two times

|--------------------|--------------------|
|-----1-----0--1-----|-----1--------1-----|
|-----------------0--|--------0-----------|
|-----2-----0--------|--------------------|
|--3-----------------|--3--------3--------|
|--------3-----------|--------------------|

|--------------------|--3-----------------|
|-----1-----0-----1--|-----0--1h----1p-0--|
|--------------------|--------------------|
|-----2-----0-----2--|-----0--2h----2p-0--|
|--0-----------0-----|-----------3--------|
|--------0-----------|--------------------|
               Never going back again

|--------------3-----|-----3--------------|
|-----0--1h-------1--|--------1--------1--|
|--------------------|--0--------0--------|
|-----0--2h----------|-----------------2--|
|-----------3--------|--------------3-----|
|--3-----------------|--3-----------------|
                                    Mmmmm

|--------------3-----|-----3--------0-----|
|--0p----3--1-----1--|--------1--------3--|
|--------------------|--0--------0--------|
|--0p----------------|--------------------|
|-----------3--------|--------------------|
|-----3--------------|--3-----------3-----|

|-----0--------0-----|-----0--------0-----|
|--------3--------3--|--------3--------3--|
|--0--------0--------|--0--------0--------|
|--------------------|--------------------|
|--------------------|--------------------|
|--------3-----------|--3-----------3-----|

|-----0--------0-----|-----3--------------|
|--------1--3-----3--|--1-----------------|
|--0-----------------|--------------------|
|--------------------|--------------------|
|--------3-----------|--3-----------------|
|--------------3-----|--------3-----------|


ENDING
|-----0--------0-----|--------------------|
|--------1--3-----3--|--1-----------------|
|--0-----------------|--0-----------------|
|--------------------|--2-----------------|
|--------3-----------|--3-----------------|
|--------------3-----|--0-----------------|
Tap to rate this tab
# A B C D E F G H I J K L M N O P Q R S T U V W X Y Z