Song name
# A B C D E F G H I J K L M N O P Q R S T U V W X Y Z

Fleetwood Mac - Why tab

Tab by: Luka Ibrisimovic


h - hammer-on

Intro:
        E                  E               F#m              F#m
|-0----------0----|---------0------|----------------|----------------|
|-----0-----------|--0----------0--|--2---------2---|---------2------|
|---------1-------|-----1----------|-----2----------|--2----------2--|
|-----------------|----------------|--------4-------|------4---------|
|-----------------|----------------|----------------|----------------|
|-0---------------|----------------|--2-------------|----------------|
 let ring                            let ring


        A                 A                E                 E
|------------5----|----------------|----------------|----------------|
|-2---------------|--------2-------|-5-----4----4h5-|--5-------------|
|----2------------|--2---------2---|---4-----4------|--4-------------|
|-------2---------|-----2----------|-6---6-4--4-4h6-|--6-------------|
|-0---------------|----------------|----------------|----------------|
|-----------------|----------------|-0----------0---|----------------|






           E                       F#m
There's no use in crying, it's all over

       A                          E
But I know there'll always be another day

        E                           F#m
Well my heart will rise up with the morning sun

        A                       E
And the hurt I feel will simply melt away

         E                     F#m
You make me feel, I just can't carry on

       A                  E   
But I know I won't always be that way

        E                           F#m
'Cos my heart will rise up with the morning sun

        A                       E
And the hurt I feel will simply melt away

                  E
You don't have to give up

          F#m
Why is it all wrong

              A
Why don't you love me

              E
Why won't you just be strong
Tap to rate this tab
 
# A B C D E F G H I J K L M N O P Q R S T U V W X Y Z