Song name
# A B C D E F G H I J K L M N O P Q R S T U V W X Y Z

Fleetwood Mac - Over My Head tab

Intro:

                           D
E----------------------------------|
B----------------------------------|
G----------------------------------|
D-0---0h2-0------------------------| A bit of bass to start. Drop the low
A-----------h2-0-h2-0------0h2-0---| E to D just for the bass.
D---------------------0----------0-|

  D             Em D          Em D          Em D  Guitar. Lots of rhythm.
E-2-------------0--2----------0--2----------0--2-|
B-3-------------0--3----------0--3----------0--3-|
G-2-------------0--2----------0--2----------0--2-| Keyboard
D-0-------------2--0----------2--0----------2--0-|
A-0-------------2--0----------2--0----------2--0-|
E-x-------------0--x----------0--x----------0--x-|

D                                   Em      D
You can  take  me  to par-a-dise.
E----------------------------------------------------|
B----------------------------------------------------|
G----------------------------------------------------|
D-----------------------------------2-2-2-2p0---"12"-| Open harmonic
A---------------------------------------------2------|
E----------------------------------------------------|

D
And then a-gain  you  can be  cold as ice.
D             Em7
I'm o-ver my  head. (O-ver my head.)
                           Em7          D                  Em  D
                           O oh, but it sure  feels  nice.
D                                              Em  D
You can  take  me  an-y time  you   like.
D
I'll be a-round  if  you  think  you  might,
D       Em7                            D                Em  D
love me ba-by.   (O-ver my head.) And  hold  me tight.

Chorus:
 D       G               D       G      D
    Your mood  is like a cir-cus wheel.
E----------------------------------------|
B---7\10-----------------7--7\10---------|
G--------11----------------------11------| Lead guitar. Background.
D----------------------------------------|
A----------------------------------------|
E----------------------------------------|

 D      G                   D     G     D
 You're chang-in' all  the  time.
E-----------------------------------|
B-----------------------------------|
G---------------------------11--9-7-|
D-----------------------------------|
A-----------------------------------|
E-----------------------------------|

  D      G              D         G
    Some-times  I can't help  but feel,
E--------------------------------------|
B-7-7\10------------------7--7\10------|
G--------11-----------------------11---|
D--------------------------------------|
A--------------------------------------|
E--------------------------------------|
         D          NC         A
that I'm wast-in'   all of my  time.

Lead guitar solo:
E---------------------------------|
B---------------------------------|
G-7--7-7--7--7-7--7h9-7--7-7--7-9-|
D---------------------------------|
A---------------------------------|
E---------------------------------|

E----------------------------|
B-7--7-7--7--7-7--7h8-7------|
G------------------------9-7-|
D----------------------------|
A----------------------------|
E----------------------------|

E---------------------|
B---------5---------5-|
G-7h9-7------7-9--7---|
D---------------------|
A---------------------|
E---------------------|

E-----------------------------------------------------|
B-----------------------------------------------------|
G-7h9-7-------------7h9-7-----------------------------|
D-------h9--7h9-9---------h9--7h9-9---7h9-7-----------|
A-------------------------------------------h9--7h9-9-|
E-----------------------------------------------------|

E----------------------------------------x-|
B----------------------------------------3-|
G--------------------9h7-----------------2-|
D-7h9-7----------7-------9h7-------------0-|
A-------h9--7h9--------------9h7-5---5-7-0-|
E----------------------------------------x-|

Chorus:

 D       G                D        G      D
    Your mood  is like a  cir-cus  wheel.
E------------------------------------------|
B---7\10------------------7--7\10----------|
G--------11-----------------------11-------|
D------------------------------------------|
A------------------------------------------|
E------------------------------------------|

  D      G                   D     G     D
  You're chang-in' all  the  time.
E-----------------------------------------|
B-----------------------------------------|
G----------------------------11-11-9-7----|
D-----------------------------------------|
A-----------------------------------------|
E-----------------------------------------|

  D      G              D        G
    Some-times  I can't help but feel,
E-------------------------------------|
B-------------------------------------|
G-7-7\10------------------------------|
D--------11-------------11--10/9-7----|
A-------------------------------------|
E-------------------------------------|

         D           NC         A
That I'm wast - in'  all of my  time.
D                                         Em      D
Think I'm  look-in' on  the  dark-side.
E----------------------------------------------------------|
B----------------------------------------------------------|
G----------------------------------------------------------|
D-----------------------------------------2-2-2-2p0---"12"-|
A---------------------------------------------------2------|
E----------------------------------------------------------|

D
But ev-'ry day  you  hurt my pride.
D              Em7
I'm o-verr my  head.  (O -ver my head.)
                              Em7          D                   Em  D
                              O oh, but it sure  feels  nice.
D             Em7                             D                   Em  D
I'm o-ver my  head.  (O -ver my head.) But it sure  feels  nice.
D             Em7                             D                   Em  D
I'm o-ver my  head.  (O -ver my head.) But it sure  feels  nice.

Chords only.
Em7                               D       Em  D

Em7                               D       Em  D
E----------------------------------------------|
B----------------------------------------------|
G---------------------9-9-9-9p7---7------------|
D-------------------------------9--------------|
A----------------------------------------------|
E----------------------------------------------|

Em7                               D
E-----------------------------------------10-----------10-|
B---------------------------------------------12-10-------|
G---------------------9-9-9-9p7---7-----------------10----|
D-------------------------------9-------------------------|
A---------------------------------------------------------|
E---------------------------------------------------------|

Chords only. Repeat and fade.

Chord diagrams:
D      Em     Em7    G      A
x00232 022000 002433 355433 003330

E,B,G,D,A,E = guitar strings, h = hammer on, p = pull off, " " = harmonic
\ = slide up, / = slide down, NC = no chord.

Tabbed from: The Best of Fleetwood Mac CD
Tap to rate this tab
# A B C D E F G H I J K L M N O P Q R S T U V W X Y Z