Song name
# A B C D E F G H I J K L M N O P Q R S T U V W X Y Z

Fleetwood Mac - I Dont Want To Know tab

There are other tabs that have the chords and their pretty easy to work out anyway. 
Another tab has a version of this solo but I think playing it on the same scale is easier 
than jumping up and down the  neck.  

There's a bit of chorus or flanger ( I don't know which used) and I might add this 
later but it's quite easy to hear on the track. Thanks!!!

E|--2-2-2-2-2-2---------------------------------------------------2-4--|
B|--------------5/4\5-5-5-5-2----/4-/4-2-4-2-------2-4-2----0-2-4------|
G|-------------------------------------------4-1-4---------1-----------|
D|--------------------------------------------------------4------------|
A|---------------------------------------------------------------------|
E|---------------------------------------------------------------------|

E|-2---2-4-2-------------2-2-----------2-2-2-2-2-2-----------2--------|
B|---4-------4/2-------------4-4-5--2--------------5/4\5-5-5----2-4-4-|
G|-----------------1-4------------------------------------------------|
D|---------------4----------------------------------------------------|
A|--------------------------------------------------------------------|
E|--------------------------------------------------------------------|

E|------------------------7-7-7-9-11-11-12-11-9-7-9-11-11-12-11-12----|
B|-2-4-2---2-4---2--4-5-7---------------------------------------------|
G|-------4-----4------------------------------------------------------|
D|--------------------------------------------------------------------|
A|--------------------------------------------------------------------|
E|--------------------------------------------------------------------|

E|-11-9-7-9-11-7-9--|
B|------------------|
G|------------------|
D|------------------|
A|------------------|
E|------------------|

Tabbed by daferet33
Email: daferet33@yahoo.co.uk
Tap to rate this tab
 
# A B C D E F G H I J K L M N O P Q R S T U V W X Y Z