Song name
# A B C D E F G H I J K L M N O P Q R S T U V W X Y Z

Fleetwood Mac - You Make Loving Fun tab

Intro:
Start with 3 cymbal taps and a drum beat.

 Gm                   F                     Eb                    Gm
E------------------------------------------------------------------------|
B------------------------------------------------------------------------|
G----------------------5>(7)>==>5p0-------5-3vvvv-------3-5-5p3-5--------|
D-----------------------------------------------------------------5vvvvv-|
A------------------------------------------------------------------------|
E------------------------------------------------------------------------|

Gm                                              F
Sweet         won-der-ful you.
E-----------------------------------------------------|
B-----------------------------------------------------|
G---------------------------------------5--5--5-------|
D-----------------------------------------------3vvvv-|
A-----------------------------------------------------|
E-----------------------------------------------------|

F                                        Eb
You make  me hap-py with the things  you do.
E----------------------------------------------------------------------|
B----------------------------------------------------------------------|
G----------------------------------------------------3--5-3-5----------|
D---------------------------------3--3--3/1vvvv--3h5----------5--vvvvv-|
A----------------------------------------------------------------------|
E----------------------------------------------------------------------|

Gm                                      F
Oh,            can it be so?
F                                   Eb
This feel-ing fol-lows wher-ev-er I go.

Chorus:
Bb                              Bb/G                  Gm7
       I nev-er did be-lieve      in  mir - a-cles.
E-----------------------------------------------------------|
B---3---6------------------------3---6----------------------|
G-----------5---3---5----3h5-3-----------5---3---5----3h5-3-|
D-----------------------------------------------------------|
A-----------------------------------------------------------|
E-----------------------------------------------------------|

Gm7               F                        Eb
       But I've a feel-ing  it's  time  to try.
E--------------------------------------------------------------------|
B---3---6----------------------------------4vvv4vvv-4-3--------3-----|
G-----------5---3---5----3h5-3--------------------------5-3--5---5-3-|
D--------------------------------------------------------------------|
A--------------------------------------------------------------------|
E--------------------------------------------------------------------|

Bb                             Bb/G                          Gm7
       I nev-er did be-lieve      in the ways of magic.
E----------------------------------------------------------------|
B---3---6------------------------3--6----------------------------|
G-----------5---3---5----3h5-3----------5---3---5----3h5-3-------|
D----------------------------------------------------------------|
A----------------------------------------------------------------|
E----------------------------------------------------------------|

Gm7        F                       Eb
   But I'm be-gin-ing to won - der why.
E------------------------------------------------------------------------|
B---3---6--------------------------4vvv4vvv4vvv-------5p3----5p3---------|
G-----------5---3---5----3h5-3--------------------3h5-----5------h5vvvvv-|
D------------------------------------------------------------------------|
A------------------------------------------------------------------------|
E------------------------------------------------------------------------|


Lead guitar solo:

Gm                      F                         Eb
E-3----3-6-3vvv-----6-8-8>(10)>8--8>(10)>8-6------------|
B----6-----------------------------------------8--8p6-8-|
G-------------------------------------------------------|
D-------------------------------------------------------|
A-------------------------------------------------------|
E-------------------------------------------------------|

Gm
E-15--15-15-15--15-15--15-15-15-18>(20)===(20)>18-15-15-|
B-------------------------------------------------------|
G-------------------------------------------------------|
D-------------------------------------------------------|
A-------------------------------------------------------|
E-------------------------------------------------------|

Gm                     F                   Eb
E-13------------------------15vvvv13-------------------------------|
B----15-13-15-13---------------------15-13-11--11-13>(15)>13-11vvv-|
G----------------15-12/10------------------------------------------|
D------------------------------------------------------------------|
A------------------------------------------------------------------|
E------------------------------------------------------------------|

Chorus:
Bb                             Bb/G                   Gm7
       I nev-er did be-lieve      in  mir - a-cles.
E-----------------------------------------------------------|
B---3---6------------------------3---6----------------------|
G-----------5---3---5----3h5-3-----------5---3---5----3h5-3-|
D-----------------------------------------------------------|
A-----------------------------------------------------------|
E-----------------------------------------------------------|

Gm7               F                       Eb
       But I've a feel-ing it's  time  to try.
E------------------------------------------------------|
B---3---6---------------------------------4--4--4--4-3-|
G-----------5---3---5----3h5-3------------3--3--3--3---|
D------------------------------------------------------|
A------------------------------------------------------|
E------------------------------------------------------|

Bb                        Bb/G                        Gm7
   I nev-er did be-lieve        in the wys of mag-ic.
E-------------------------------------------------------------------|
B---3---6--------------3----3-6-----------------------3h6--3h6-3----|
G-----------5---3---5-----5---------------------------------------3-|
D-------------------------------------------------------------------|
A-------------------------------------------------------------------|
E-------------------------------------------------------------------|

Gm7        F                    Eb
But I'm be-gin-ing to won - der why.

Gm                                         F
Don't          don't break the spell.
E-------------------------------------------|
B------3---6--------------------------------|
G-------------------------------------------|
D-------------------------------------------|
A-------------------------------------------|
E-------------------------------------------|

F                                          Eb
  It would be dif-f'rent  and you know  it will.
E-----------------------------------------------------------------|
B-----------------------------------------------------------------|
G---------------------------------------------------------5-5p3---|
D---------------------------------------------------------------5-|
A-----------------------------------------------------------------|
E-----------------------------------------------------------------|

Gm
You,      you make lov-in'  fun.
E---------------------------------------------------|
B---------------------------------------------------|
G---------------------------------------------------|
D-------------------------------3h5p3h5--3h5p3h5-h5-|
A---------------------------------------------------|
E---------------------------------------------------|

                                       F
E-13h15p13h15--13h15p13h15-h15--13--h15-|
B---------------------------------------|
G---------------------------------------|
D---------------------------------------|
A---------------------------------------|
E---------------------------------------|

F                                                 Eb
And I don't have to tell you  you're the  on - ly one.

  Bb     Gm  F                     Eb
  You,            you make lov-in' fun.       (All  I want to.)
E-10--10--10--10-10-10--11-11-11-11p10-11-11--11>(13)>11-11-10-|
B--------------------------------------------------------------|
G--------------------------------------------------------------|
D--------------------------------------------------------------|
A--------------------------------------------------------------|
E--------------------------------------------------------------|

  You,                    you make  lov'in  fun.
E-11>(13)>11-11-10----10--11>(13)>11-11-10----10-|
B------------------13----------------------13----|
G------------------------------------------------|
D------------------------------------------------|
A------------------------------------------------|
E------------------------------------------------|

                             (All  I want to.)
E-11--11p10-11--11p10--11-11-11>(13)>11-11-10-|
B---------------------------------------------|
G---------------------------------------------|
D---------------------------------------------|
A---------------------------------------------|
E---------------------------------------------|

  You,                     you make  lov-in' fun.
E-11>(13)>11-11-10----10--11>(13)>11-11-10----10-|
B------------------13----------------------13----|
G------------------------------------------------|
D------------------------------------------------|
A------------------------------------------------|
E------------------------------------------------|

                            (All  I wan-na do.)
E-11--11p10-11--11p10--11-11-11>(13)>11-11-10-|
B---------------------------------------------|
G---------------------------------------------|
D---------------------------------------------|
A---------------------------------------------|
E---------------------------------------------|

  You,                    you make  lov-in' fun.
E-11>(13)>11-11-10----10--11>(13)>11-11-10----10-|
B------------------13----------------------13----|
G------------------------------------------------|
D------------------------------------------------|
A------------------------------------------------|
E------------------------------------------------|

                      (All  I wan-na do.)
E-11--11p10-10--------------10-11-------|
B--------------13-13--11-13-------13-11-|
G---------------------------------------|
D---------------------------------------|
A---------------------------------------|
E---------------------------------------|

Lead solo: Fade out.
  Bb                     Eb                             Bb
E---3--------------------------------------------------------3-6-3-|
B-6----6-3--3-6------------------------3-6-3----3--6-3--6--6-------|
G----------------5-3-------3------3-5---------5--------------------|
D---------------------5--5---5--5----------------------------------|
A------------------------------------------------------------------|
E------------------------------------------------------------------|

As usual, great lead and background from Lindsey Buckingham. Hope I got it all in.

Chord diagrams:
Gm     F      Eb     Bb     Bb/G   Gm7
355333 133211 x65343 xx3331 xx3313 x53333
E,B,G,D,A,E, = guitar strings, / - slide down, >( )> = bend to note in ( )
and release, ===  = hold note, h = hammer on, p = pull off, vvv = vibrato.
The Bb/G is a made up chord but it sounds right.
Listen to the song to get the timing on the background guitar. It might be off a bit.
Tap to rate this tab
# A B C D E F G H I J K L M N O P Q R S T U V W X Y Z