Song name
# A B C D E F G H I J K L M N O P Q R S T U V W X Y Z

Fleetwood Mac - The Chain tab

Fleetwood Mac
Rumours
The Chain
Capo on Second fret DADGBD

Chords
D7:000212---------|
D2/c 030230       |   
G/b x20030        |
Gm: 010030        |---Capo 2
D2:000230         |
power A:555xxx    | 
IDK: 030033-------|
The intro is the same chord with four variation riffs
play order riff 1, riff 2 riff 1, riff 3, riff 3, riff 4, riff 3, Main riff
Intro   D7               D7                      D7
D---------2-|       D-------------|       D-----------------|
B-----1-----|       B-----1---1h3-|       B-----1---1---1h3-|
G-------2---|riff 1 G-------2-----|Riff 2 G-------2---2-----|Riff 3
D---0-------|       D---0---------|       D-----------------|
A-----------|       A-------------|       A-----------------|
D-0---------|       D-0-----------|       D-----------------|
    Still D7               D2\c 
D---------2-----|       D--------------0-|
B-----1-----1h3-|       B-----3------3-3-|
G-------2-------|riff 4 G------------2-2-|Main riff
D---0-----------|       D---0----------0-|
A---------------|       A-------b3p0---0-|
D-0-------------|       D-0------------0-|



        D2\c                      G/b     Gm              D2\c
D---------------------5---3v--------------------------------------|
B-----3------3--------------------3-3-------3-----------3-----3---|
G------------2-------------------0-0-0-----0------------------2---|
D---0---------------0---0-----------------------------0-----------|
A-------b3p0-------------------2------2--1---------------b3p0-----|
D-0-------------3s5---------------------------b3p0--0-------------|
        
        D2\c                      G/b     Gm              D2\c
D---------------------5---3v--------------------------------------|
B-----3------3--------------------3-3-------3-----------3----6----|
G------------2-------------------0-0-0-----0--------------2s5-7---|
D---0---------------0---0-----------------------------0-----------|
A-------b3p0-------------------2------2--1------------------------| 
D-0-------------3s5---------------------------b3p0--0-------------|

Power A       D2         Gm               Idk
D-X-X-X-----0--0-0--0-0-0-0-0-0-3p0-0-0-0-0-0-3p0-0-0-0-0-0-|
B-X-X-X-----3--3-3--3-3-3-3-3-3-3-3-3-3-3-3-3-3-3-3-3-3-3-3-|
G-X-X-X--8X-2--2-2--0-0-0-0-0-0-0-0-0-0-0-0-0-0-0-0-0-0-0-0-|
D-5-X-X-----0--0-0--0-0-0-0-0-0-0-0-0-0-0-0-0-0-0-0-0-0-0-0-|-2x
A-5-X-X-----0--0-0--1-1-1-1-1-1-3-3-3-3-3-3-3-0-0-0-0-0-0-0-|
D-5-X-X-----0--0-0--0-0-0-0-0-0-0-0-0-0-0-0-0-0-0-0-0-0-0-0-|
you dont... still   Saying...   Never break...Never Break..
you will... Hear you...

        D2\c                      G/b     Gm              D2\c
D---------------------5---3v--------------------------------------|
B-----3------3--------------------3-3-------3-----------3-----3---|
G------------2-------------------0-0-0-----0------------------2---|-2X
D---0---------------0---0-----------------------------0-----------|
A-------b3p0-------------------2------2--1---------------b3p0-----|
D-0-------------3s5---------------------------b3p0--0-------------|

        D2\c                      G/b     Gm              D2\c
D---------------------5---3v--------------------------------------|
B-----3------3--------------------3-3-------3-----------3----6----|
G------------2-------------------0-0-0-----0--------------2s5-7---|
D---0---------------0---0-----------------------------0-----------|
A-------b3p0-------------------2------2--1------------------------|

Power A       D2         Gm               Idk
D-X-X-X-----0--0-0--0-0-0-0-0-0-3p0-0-0-0-0-0-3p0-0-0-0-0-0-|
B-X-X-X-----3--3-3--3-3-3-3-3-3-3-3-3-3-3-3-3-3-3-3-3-3-3-3-|
G-X-X-X--8X-2--2-2--0-0-0-0-0-0-0-0-0-0-0-0-0-0-0-0-0-0-0-0-|
D-5-X-X-----0--0-0--0-0-0-0-0-0-0-0-0-0-0-0-0-0-0-0-0-0-0-0-|-3x
A-5-X-X-----0--0-0--1-1-1-1-1-1-3-3-3-3-3-3-3-0-0-0-0-0-0-0-|
D-5-X-X-----0--0-0--0-0-0-0-0-0-0-0-0-0-0-0-0-0-0-0-0-0-0-0-|
you dont... still   Saying...   Never break...Never Break..
you will... Hear you...

D-2-2-2--2--2-2-2-2-2-2--2--2-2-2--2--2-|
B-3-3--3--3---3-3-3-3--3--3---3--3--3---|
G-2-3---3--3--2-3-2-3---3--3--2---3--3--|
D-0-0-----------------------------------|
A---------------------------------------|
D---------------------------------------|

low D string only
originally for bass bridge to solo
D-5--5-7-8-7-5-3-5-7-0-----5--5-7-8-7-5-3-5-7-0-|

Solo 
Note:at this point im going to reffer to frets as thou the capo isn't on
D-0-----0--0-0-0-0-0-0-0-017-0-0-0-0-0-0-0-017-0-0-0-0-0-0-0-0-0|
B-5-----5s171717171717171717171717171717171717171717171717171715|
G---24x-------------------------------------------------------^^|
D-------------------------------------------------------------^^|
A-------------------------------------------------------------^^|
D-------------------------------------------------------------^^|

D--0--0--0--0-17--0--0-17--0--0-17--0--0-17--0--0-17--0--0-17--0--0-17|
B-17-17-17-17-17-17-17-17-17-17-17-17-17-17-17-17-17-17-17-17-17-17-17|
G---------------------------------------------------------------------|
D---------------------------------------------------------------------|
A---------------------------------------------------------------------|
D---------------------------------------------------------------------|

D-17s19-fb19fb19fb19fb19fb19fb19fb19fb19fb19fbf19fb19fb19fb19fb19fb19fb19|
B------------------------------------------------------------------------|
G------------------------------------------------------------------------|
D------------------------------------------------------------------------|
A------------------------------------------------------------------------|
D------------------------------------------------------------------------|
 this last stretch is based on the E or e minor pentitonic scale
D-19p17s15---------------------------------------------------------|
B---------15-17----------17-b17------------------------------------|
G---------------19-16-19----b19unison bend to end of song i guess--|
D------------------------------------------------------------------|
A------------------------------------------------------------------|
D------------------------------------------------------------------|

-Austen Forbes
Tap to rate this tab
# A B C D E F G H I J K L M N O P Q R S T U V W X Y Z