Song name
# A B C D E F G H I J K L M N O P Q R S T U V W X Y Z

Fleetwood Mac - Love That Burns tab

                                          Artist - Fleetwood Mac
                                         ************************
                                          Song - Love That Burns 
                                         ************************
                                           Album - Mr Wonderful 
                                          **********************
                                           Tabbed By - Ayreon77
                                          **********************


        


INTRO
******
            Am                              Dm                  Am
[----------|---5--------------|------------|--------------|-----------------]
[----------|-b----b-----------|-brp--------|---5----------|-----b-----------]
[--------5-|-7----7-7-5-------|-7--5---5-7-|-7---5-7----s-|-7-5-7-7-5-------]
[----5-7---|------------7-7-7-|------7-----|---------7-7\-|-----------7-7-7-]
[-7--------|------------------|------------|--------------|-----------------]
[----------|------------------|------------|--------------|-----------------]


[---------]
[---------]
[---------]
[--s--5-7-]
[-5\7-----]
[---------]


-------------------------------------------------------------
VERSE 1
********
Am
Would you love me tomorrow

Like you say you love me now

00:36
[----------------------]
[----------------------]
[---------------s-s-s--]
[---5-7--s-----5\7\5\7-]
[-7-----7\5-3----------]
[----------------------]
          Dm
Would you love me, would you love me tomorrow
                 Am
Like you say you love me now

00:55
[----------------------------]
[-brp------------------------]
[-7--5--p-----------------s--]
[------7-5--s------p-s---5\7-]
[----------7\5-3--7-5\3------]
[----------------------------]
         Em
When the flames of our flesh have stopped burning
Dm                           Am
    And the fire of our love has cooled down

01:16
[----------------------]
[----------------------]
[--h-------------------]
[-5-7-5--s------s-s----]
[-------7\5-3--5\6\5-3-]
[----------------------]


-------------------------------------------------------------
VERSE 2
********
Am
Too many times I've given too much

01:25
[------|---------]
[-brp--|---------]
[-7--5-|-7-5-----]
[------|-----7-7-]
[------|---------]
[------|---------]

Baby, give me your love to me in return

01:34
[---------5-|---------------------------------]
[-b-----5---|-8-5-----------------------------]
[-7---------|-----7-5----------------------s--]
[-hold------|---------7-7----5-7-5--s-----5\7-]
[-----------|--------------7-------7\5-3------]
[-----------|---------------------------------]
Dm
  Too many times I've given too much

01:48
[----------------]
[-b--------5-----]
[-7-7-5-7----5---]
[--------------7-]
[----------------]
[----------------]
                           Am
Baby, give me your love in return

01:56
[-------|-----------------------|-------------------------]
[-------|-----------------------|-------------------------]
[-------|----------------h-p----|-------------------5-----]
[---5-7-|---5-7-5--s----0-2-0---|------------s--5-7---7-7-]
[-7-----|-7-------7\5-3-------3-|-------3-5-5\7-----------]
[-------|-----------------------|-0-3-5-------------------]
Em
   Give me your mind and your heart
Dm                                            Am
   But please don't leave me with a love that burns

02:16
[-------------5-|-------------------]
[-b--p---b--5---|-b--p--------------]
[-7-7-5--7------|-7-7-5--p----5-----]
[---------------|-------7-5-7---7-7-]
[---------------|-------------------]
[---------------|-------------------]


-------------------------------------------------------------
VERSE 3
********
Am
And don't use me as your fool

02:27
[-----------]
[-----------]
[-----------]
[---5--s----]
[-7---7\5-3-]
[-----------]

'Cause my heart can't stand another lie

02:37
[-------|-------5-------------]
[-b-----|-----------5---------]
[-7-7-5-|---5-7-------7-5-----]
[-------|-7---------------7-7-]
[-------|---------------------]
[-------|---------------------]
             Dm
Please don't use me, don't use me as your fool
                                  Am
Baby, 'cause my heart can't stand another lie

02:56
[-------|-----------------]
[-b-----|-b---------5-----]
[-7-7-5-|-7-7-5-7-7-------]
[-------|-------------7-7-]
[-------|-----------------]
[-------|-----------------]
Em
   And if you can't love me tomorrow

03:10
[-----]
[--h--]
[-5-7-]
[-----]
[-----]
[-----]
Dm                                   Am
   Please leave me now in my room to cry

03:17
[--------------------------------------]
[-b------------------------------------]
[-7-7-5--------------------------------]
[-------7-5--s----s------s------s------]
[-----------7\5--6\5-3--6\5-3--6\5-3-3-]
[--------------------------------------]


-------------------------------------------------------------
03:24
SOLO   
*****                Am
[-----brp----------b-------|-----b---p-------b---p---------]
[----15--13----13-15-------|----15-15-13-15-15-15-13-------]
[-14--------14-------14-14-|-14----------------------14-14-]
[--------------------------|-------------------------------]
[--------------------------|-------------------------------]
[--------------------------|-------------------------------]
               
                                             03:40
[----------------11---p---|--brp------12-12-|-------------|-----------]
[----------13-15----15-13-|-15--13-15-------|----------s--|-8-5-------]
[----12-14----------------|-----------------|-------5-7\9-|-----7-5---]
[-14----------------------|-----------------|---5-7-------|---------7-]
[-------------------------|-----------------|-7-----------|-----------]
[-------------------------|-----------------|-------------|-----------]

03:45        Dm
[--brp----------------12------------------------------]
[-15--13-----15-13-15----15-13---------13-15-13-------]
[--------14--------------------14-14------------14-14-]
[-----------------------------------------------------]
[-----------------------------------------------------]
[-----------------------------------------------------]

                                Am
[--brp--h--p---------|--------------------5--p------------------------------]
[-15--13-15-13-------|---p-------s----b-5---8-5-b--p------------------------]
[--------------14-14-|-12-9-12--9\7-5-7---------7-7-5--p-----------------s--]
[--------------------|--------------------------------7-5--s------s-----5\7-]
[--------------------|------------------------------------6\5-3--6\5-3------]
[--------------------|------------------------------------------------------]

04:02             Em                  Dm
[-------------|-----5-----5--p------|----------------10-12-10---p---]
[-8-5---------|-5-8-----5---8-5---5-|----------10-13----------13-10-]
[-----7-5-----|-----------------7---|-br----10----------------------]
[---------7-7-|---------------------|-12-12-------------------------]
[-------------|---------------------|-------------------------------]
[-------------|---------------------|-------------------------------]

                                     Am
[---------------------5------------------|----------------------------------]
[10-10-----s------b-5----8-5---5---------|----------------------------------]
[------12-9\7-5-7-7----------7---7-5-----|--p-----------------------s-------]
[------------------------------------7-7-|-5-4-----s-s------s-s----5\7-5---7]
[----------------------------------------|-----7--5\6\5-3--5\6\5-3-------7--]
[----------------------------------------|----------------------------------]

                                         
[---------------------------|-------------h----------------------fade out-]
[---------------------------|-1-1--1-1---5-8-------5--------6-6-6-6-6-6---]
[---------------------------|-2-2--2-2---------5-7----------5-5-5-5-5-5---]
[--s------s-s----------s-s--|-2-2--2-2----------------7-7-----------------]
[-6\5-3--5\6\5-3---3--3\2\3-|-0----0--------------------------------------]
[----------------5----------|---------------------------------------------]


A Cool Tune.

Enjoy..............
Tap to rate this tab
 
# A B C D E F G H I J K L M N O P Q R S T U V W X Y Z