Song name
# A B C D E F G H I J K L M N O P Q R S T U V W X Y Z

Fleetwood Mac - Dreams tab

Dreams - Fleetwood Mac

I was utterly disappointed in the tabs for this song, so I thought I'd do it myself: 


Chords throughout song:

       F - G

E-|---1-----3---|
B-|---1-----3---|        I like to follow the rhythm of the
G-|---2-----4---|        rock organ throughout the song
D-|---3-----5---|
A-|---3-----5---|
E-|---1-----3---| 

Intro

E-|--------|---------------|---------------|----------|
B-|---10---|---------------|---------------|----------|
G-|--------|---7b9b7p5-----|---------------|----------|
D-|--------|-----------7---|---7b9b7p5-----|---5--7---|
A-|--------|---------------|-----------7---|----------|
E-|--------|---------------|---------------|----------|


Enter Nix:

"Now here you go again you say you want your freedom..
 Well who am I to keep you down?"

E-|----------------|------------------|
B-|----------------|------------------|
G-|----------------|------------------|
D-|---7b9b7p5------|------5-----------|
A-|-----------7----|---/7---7-5-3-0---|
E-|----------------|------------------|

"It's only right that you should play the way you feel it
 But listen carefully to the sound of your loneliness..."


E-|-------------|------------------|
B-|-------------|------------------|
G-|---9---------|------------------|
D-|------9--7---|------------------|
A-|-------------|------------------|
E-|-------------|------------------|

Pre-Chorus:

"Like a heartbeat drives you mad, in the stillness of remembering what you had,
 And what you lost, and what you had, and what you lost...."

E-|-------------------------|----------------------------|-----------|--------------------------|
B-|-------------------------|----------------------------|-----------|--------------------------|
G-|--------9----------10----|-------12----------10-------|--3x then--|-------12-----10p9--------|
D-|-----10---10----10----10-|----10----10----10----10----|-----------|----10----10-------12-10--|
A-|---8---------10----------|-12----------10----------10-|-----------|-12-----------------------|
E-|-------------------------|----------------------------|-----------|--------------------------|

Chorus:

"Thunder only happens when it's raining /
 Players only love you when they're playing /
 Say women, they will come and they will go /
 When the rain washes you clean you'll know"

       F---G

E-|---1-----3---|
B-|---1-----3---|
G-|---2-----4---|       Listen for the strumming pattern
D-|---3-----5---|       I'm pretty sure there is some ambient
A-|---3-----5---|       lead guitar sounds throughout the chorus
E-|---1-----3---|       as well



Post Chorus Lead Riff:

E-|--8-------------------|-----------------|--------------|------------|
B-|-----10-8-10-8-10-----|--10-8-----------|--------------|--10-8------|
G-|------------------7---|-------7---------|---x2---then--|-------7----|
D-|----------------------|-----------10-7--|--------------|---------7--|
A-|----------------------|-----------------|--------------|------------|
E-|----------------------|-----------------|--------------|------------|

Verse:

"Now here I go again, I see the crystal visions
 I keep my visions to myself"

E-|----------------|------------------|
B-|----------------|------------------|
G-|----------------|------------------|
D-|---7b9b7p5------|------5-----------|
A-|-----------7----|---/7---7-5-3-0---|
E-|----------------|------------------|

"Its only me, who wants to wrap around your dreams and
 Have you any dreams you'd like to sell? Dreams of loneliness..."

E-|---------------|-----------------|
B-|---------------|-----------------|
G-|---7b9b7\5-----|-----------------|
D-|-----------7---|-----------------|
A-|---------------|-----------------|
E-|---------------|-----------------|

Pre-Chorus:

"Like a heartbeat drives you mad, in the stillness of remembering what you had,
 And what you lost, and what you had, and what you lost...."

E-|-------------------------|----------------------------|-----------|--------------------------|
B-|-------------------------|----------------------------|-----------|--------------------------|
G-|--------9----------10----|-------12----------10-------|--3x then--|-------12-----10p9--------|
D-|-----10---10----10----10-|----10----10----10----10----|-----------|----10----10-------12-10--|
A-|---8---------10----------|-12----------10----------10-|-----------|-12-----------------------|
E-|-------------------------|----------------------------|-----------|--------------------------|

Chorus:
Same as above, add in some ambient notes through out the end of the song, and 
that's pretty much it!
Tap to rate this tab
# A B C D E F G H I J K L M N O P Q R S T U V W X Y Z