Song name
# A B C D E F G H I J K L M N O P Q R S T U V W X Y Z

Fleetwood Mac - Need Your Love So Bad tab

-----------------------------------------------------------------
              Need Your Love So Bad-Fleetwood Mac
-----------------------------------------------------------------

Tabbed By : Aeonoptic   

12/8

Tuning:EADGBe
Intro:             
E|-------------------|--------------------|--------------------------|
B|----10-12b14b13b14~|----10h12---10------|---------10-12----10~-----|
G|-11----------------|-11-------11----11--|----9/11-------11---------|
D|-------------------|--------------------|-12-----------------------|
A|-------------------|--------------------|--------------------------|
E|-------------------|--------------------|--------------------------|

   
E|-------------------------|--------------------|------12b14---------|
B|----10----12b14-12b14-10~|----10-12br14p10~---|12b14---------14pb12|<<
G|-------11----------------|-11---------------11|--------------------|       
D|-12----------------------|--------------------|--------------------|
A|-------------------------|--------------------|--------------------|
E|-------------------------|--------------------|--------------------|

  E|-------|-------------------------------|---5-8--10-11-12\--------|
>>B|-10-12-|-----10h12---10----12b14-10~---|---7-10-12-13-14\--------|
  G|-------|--11-------11---11-------------|-------------------------|
  D|-------|-------------------------------|-------------------------|
  A|-------|-------------------------------|-------------------------|
  E|-------|-------------------------------|-------------------------|

End:
E|----------------------------|-----13b15-12-----|---------------------------|
B|----12b14-12p10-12b14-12b14-|--10----------10~-|-10----10-13b15-13-10-10---|
G|-11-------------------------|------------------|----11-------------------11|
D|----------------------------|------------------|---------------------------|
A|----------------------------|------------------|---------------------------|
E|----------------------------|------------------|---------------------------|

E|-13b15-12-10------------------|
B|-------------10---------------|
G|-------------------Fade out---|
D|------------------------------|
A|------------------------------|
E|------------------------------|

| /  slide up
| \  slide down
| h  hammer-on
| p  pull-off
| ~  vibrato
| +  harmonic
| x  Mute note
Tap to rate this tab
# A B C D E F G H I J K L M N O P Q R S T U V W X Y Z