Song name
# A B C D E F G H I J K L M N O P Q R S T U V W X Y Z

Fleetwood Mac - Sad Angel tab

-------------------------------------------------------------------------------
                             SAD ANGEL (live) - Fleetwood Mac
-------------------------------------------------------------------------------
Tabbed by: Sauter_Do
E-mail: ---

Tuning: Standard


This is an approach to the live-version they played on the REUNION TOUR 2013.

The intro is separated into eighth notes and is a real rhythmic thing.
The first seven notes are played palm muted, the last one is accented and played as a 
full down stroke.
Notice also the timing between the notes, it goes like this:
"Bam Bam BamBam Bam BamBamBaaaaam"
"Bam Bam BamBam Bam BamBaBaaaaam"




I N T R O

      F#      F#     F#       F#            F#   F#      F#      F#      F#
e|--------------------------------------------------------------------------------|
B|--------------------------------------------------------------------------------|
G|----11---11-11-11---11---11-11-11---------11---11---11-11-11---11---11-11-11----|
D|----11---11-11-11---11---11-11-11---------11---11---11-11-11---11---11-11-11----|
A|-----9----9--9--9----9----9--9--9----------9----9----9--9--9----9----9--9--9----|
E|--------------------------------------------------------------------------------|

      F#      F#       F#     F#            B#   B#   B#     B#    B#
e|--------------------------------------------------------------------------------|
B|--------------------------------------------------------------------------------|
G|----11---11-11-11---11---11-11-11--------- 8---8---8-8-8---8---8-8-8------------|
D|----11---11-11-11---11---11-11-11----------8---8---8-8-8---8---8-8-8------------|
A|-----9----9--9--9----9----9--9--9----------6---6---6-6-6---6---6-6-6------------|
E|--------------------------------------------------------------------------------|




V E R S E


"My eyes, were consumed..."

      F#      F#      F#      F#            F#   F#      F#      F#      F#
e|--------------------------------------------------------------------------------|
B|--------------------------------------------------------------------------------|
G|----11---11-11-11---11---11-11-11---------11---11---11-11-11---11---11-11-11----|
D|----11---11-11-11---11---11-11-11---------11---11---11-11-11---11---11-11-11----|
A|-----9----9--9--9----9----9--9--9----------9----9----9--9--9----9----9--9--9----|
E|--------------------------------------------------------------------------------|

      F#      F#      F#      F#             B#   B#   B#     B#    B#
e|--------------------------------------------------------------------------------|
B|--------------------------------------------------------------------------------|
G|----11---11-11-11---11---11-11-11----------8---8---8-8-8---8---8-8-8------------|
D|----11---11-11-11---11---11-11-11----------8---8---8-8-8---8---8-8-8------------|
A|-----9----9--9--9----9----9--9--9----------6---6---6-6-6---6---6-6-6------------|
E|--------------------------------------------------------------------------------|


"Your dreams would not wake...."


      F#      F#     F#       F#            F#   F#      F#      F#      F#
e|--------------------------------------------------------------------------------|
B|--------------------------------------------------------------------------------|
G|----11---11-11-11---11---11-11-11---------11---11---11-11-11---11---11-11-11----|
D|----11---11-11-11---11---11-11-11---------11---11---11-11-11---11---11-11-11----|
A|-----9----9--9--9----9----9--9--9----------9----9----9--9--9----9----9--9--9----|
E|--------------------------------------------------------------------------------|

      F#      F#       F#     F#            B#   B#   B#     B#    B#
e|--------------------------------------------------------------------------------|
B|--------------------------------------------------------------------------------|
G|----11---11-11-11---11---11-11-11--------- 8---8---8-8-8---8---8-8-8------------|
D|----11---11-11-11---11---11-11-11----------8---8---8-8-8---8---8-8-8------------|
A|-----9----9--9--9----9----9--9--9----------6---6---6-6-6---6---6-6-6------------|
E|--------------------------------------------------------------------------------|




R E F R A I N

"Hello, Hello sad angel..."              "...have you come to fight the war..."

             E             E                          C#           A
e|-------------------------------------------------------------------------------|
B|-------------------------------------------------------------------------------|
G|----9---9--9--9---9---9--9--9-------------------6--6--6--6---2--2--2--2--------|
D|----9---9--9--9---9---9--9--9-------------------4--4--4--4---2--2--2--2--------|
A|----7---7--7--7---7---7--7--7-------------------4--4--4--4---2--2--2--2--------|
E|-------------------------------------------------------------------------------|

             E             E                          C#           A
e|-------------------------------------------------------------------------------|
B|-------------------------------------------------------------------------------|
G|----9---9--9--9---9---9--9--9-------------------6--6--6--6---2--2--2--2--------|
D|----9---9--9--9---9---9--9--9-------------------4--4--4--4---2--2--2--2--------|
A|----7---7--7--7---7---7--7--7-------------------4--4--4--4---2--2--2--2--------|
E|-------------------------------------------------------------------------------|

             E             E                          C#           A
e|-------------------------------------------------------------------------------|
B|-------------------------------------------------------------------------------|
G|----9---9--9--9---9---9--9--9-------------------6--6--6--6---2--2--2--2--------|
D|----9---9--9--9---9---9--9--9-------------------4--4--4--4---2--2--2--2--------|
A|----7---7--7--7---7---7--7--7-------------------4--4--4--4---2--2--2--2--------|
E|-------------------------------------------------------------------------------|

             E             E                          C#           A
e|-------------------------------------------------------------------------------|
B|-------------------------------------------------------------------------------|
G|----9---9--9--9---9---9--9--9-------------------6--6--6--6---2--2--2--2--------|
D|----9---9--9--9---9---9--9--9-------------------4--4--4--4---2--2--2--2--------|
A|----7---7--7--7---7---7--7--7-------------------4--4--4--4---2--2--2--2--------|
E|-------------------------------------------------------------------------------|



S O L O 1

e|-------------------------------------------------------------------------------|
B|-/7vv7\6vv6\4vv4/7vv7\6vv6\4vv-------------------------------------------------|
G|-------------------------------------------------------------------------------|
D|-------------------------------------------------------------------------------|
A|-------------------------------------------------------------------------------|
E|-------------------------------------------------------------------------------|



V E R S E


"My eyes, saw the words..."

      F#      F#      F#      F#            F#   F#      F#      F#      F#
e|--------------------------------------------------------------------------------|
B|--------------------------------------------------------------------------------|
G|----11---11-11-11---11---11-11-11---------11---11---11-11-11---11---11-11-11----|
D|----11---11-11-11---11---11-11-11---------11---11---11-11-11---11---11-11-11----|
A|-----9----9--9--9----9----9--9--9----------9----9----9--9--9----9----9--9--9----|
E|--------------------------------------------------------------------------------|

      F#      F#      F#      F#             B#   B#   B#     B#    B#
e|--------------------------------------------------------------------------------|
B|--------------------------------------------------------------------------------|
G|----11---11-11-11---11---11-11-11----------8---8---8-8-8---8---8-8-8------------|
D|----11---11-11-11---11---11-11-11----------8---8---8-8-8---8---8-8-8------------|
A|-----9----9--9--9----9----9--9--9----------6---6---6-6-6---6---6-6-6------------|
E|--------------------------------------------------------------------------------|


"Your pain had to sleep...."


      F#      F#     F#       F#            F#   F#      F#      F#      F#
e|--------------------------------------------------------------------------------|
B|--------------------------------------------------------------------------------|
G|----11---11-11-11---11---11-11-11---------11---11---11-11-11---11---11-11-11----|
D|----11---11-11-11---11---11-11-11---------11---11---11-11-11---11---11-11-11----|
A|-----9----9--9--9----9----9--9--9----------9----9----9--9--9----9----9--9--9----|
E|--------------------------------------------------------------------------------|

      F#      F#       F#     F#            B#   B#   B#     B#    B#
e|--------------------------------------------------------------------------------|
B|--------------------------------------------------------------------------------|
G|----11---11-11-11---11---11-11-11--------- 8---8---8-8-8---8---8-8-8------------|
D|----11---11-11-11---11---11-11-11----------8---8---8-8-8---8---8-8-8------------|
A|-----9----9--9--9----9----9--9--9----------6---6---6-6-6---6---6-6-6------------|
E|--------------------------------------------------------------------------------|



R E F R A I N

"Hello, Hello sad angel..."              "...have you come to fight the war..."

             E             E                          C#           A
e|-------------------------------------------------------------------------------|
B|-------------------------------------------------------------------------------|
G|----9---9--9--9---9---9--9--9-------------------6--6--6--6---2--2--2--2--------|
D|----9---9--9--9---9---9--9--9-------------------4--4--4--4---2--2--2--2--------|
A|----7---7--7--7---7---7--7--7-------------------4--4--4--4---2--2--2--2--------|
E|-------------------------------------------------------------------------------|

             E             E                          C#           A
e|-------------------------------------------------------------------------------|
B|-------------------------------------------------------------------------------|
G|----9---9--9--9---9---9--9--9-------------------6--6--6--6---2--2--2--2--------|
D|----9---9--9--9---9---9--9--9-------------------4--4--4--4---2--2--2--2--------|
A|----7---7--7--7---7---7--7--7-------------------4--4--4--4---2--2--2--2--------|
E|-------------------------------------------------------------------------------|

             E             E                          C#           A
e|-------------------------------------------------------------------------------|
B|-------------------------------------------------------------------------------|
G|----9---9--9--9---9---9--9--9-------------------6--6--6--6---2--2--2--2--------|
D|----9---9--9--9---9---9--9--9-------------------4--4--4--4---2--2--2--2--------|
A|----7---7--7--7---7---7--7--7-------------------4--4--4--4---2--2--2--2--------|
E|-------------------------------------------------------------------------------|

             E             E                          C#           A
e|-------------------------------------------------------------------------------|
B|-------------------------------------------------------------------------------|
G|----9---9--9--9---9---9--9--9-------------------6--6--6--6---2--2--2--2--------|
D|----9---9--9--9---9---9--9--9-------------------4--4--4--4---2--2--2--2--------|
A|----7---7--7--7---7---7--7--7-------------------4--4--4--4---2--2--2--2--------|
E|-------------------------------------------------------------------------------|



S O L O 2


e|--------------------------------/9vv11p----------------------------------------|
B|-/7vvv7\6vv6\4vv4/7vv7\6vv6\4vv---------11vv12p-----9--11----------------------|
G|------------------------------------------------11vv--------8vv\6--------------|
D|-------------------------------------------------------------------------------|
A|-------------------------------------------------------------------------------|
E|-------------------------------------------------------------------------------|

e|-/9vv11brbrbr------------------------------------------------------------------|
B|---------------11vv11brbrbr---------9--11--9vv---11brbrbr--9--7----------------|
G|-------------------------------11vv--------------------------------------------|
D|-------------------------------------------------------------------------------|
A|-------------------------------------------------------------------------------|
E|-------------------------------------------------------------------------------|



R E F R A I N

"Hello, Hello sad angel..."              "...have you come to fight the war..."

             E             E                          C#           A
e|-------------------------------------------------------------------------------|
B|-------------------------------------------------------------------------------|
G|----9---9--9--9---9---9--9--9-------------------6--6--6--6---2--2--2--2--------|
D|----9---9--9--9---9---9--9--9-------------------4--4--4--4---2--2--2--2--------|
A|----7---7--7--7---7---7--7--7-------------------4--4--4--4---2--2--2--2--------|
E|-------------------------------------------------------------------------------|

             E             E                          C#           A
e|-------------------------------------------------------------------------------|
B|-------------------------------------------------------------------------------|
G|----9---9--9--9---9---9--9--9-------------------6--6--6--6---2--2--2--2--------|
D|----9---9--9--9---9---9--9--9-------------------4--4--4--4---2--2--2--2--------|
A|----7---7--7--7---7---7--7--7-------------------4--4--4--4---2--2--2--2--------|
E|-------------------------------------------------------------------------------|

             E             E                          C#           A
e|-------------------------------------------------------------------------------|
B|-------------------------------------------------------------------------------|
G|----9---9--9--9---9---9--9--9-------------------6--6--6--6---2--2--2--2--------|
D|----9---9--9--9---9---9--9--9-------------------4--4--4--4---2--2--2--2--------|
A|----7---7--7--7---7---7--7--7-------------------4--4--4--4---2--2--2--2--------|
E|-------------------------------------------------------------------------------|

             E             E                          C#           A
e|-------------------------------------------------------------------------------|
B|-------------------------------------------------------------------------------|
G|----9---9--9--9---9---9--9--9-------------------6--6--6--6---2--2--2--2--------|
D|----9---9--9--9---9---9--9--9-------------------4--4--4--4---2--2--2--2--------|
A|----7---7--7--7---7---7--7--7-------------------4--4--4--4---2--2--2--2--------|
E|-------------------------------------------------------------------------------|



S O L O 3

                     "Come to fight the war...."

e|-------------------------------------------------------------------------------|
B|-/7vvvvv7\6vvvv6\4vvvv4/7vvvv7\6vvvv6\4vvvv------------------------------------|
G|-------------------------------------------------------------------------------|
D|-------------------------------------------------------------------------------|
A|-------------------------------------------------------------------------------|
E|-------------------------------------------------------------------------------|

e|-------------------------------------------------------------------------------|
B|-/7vvvvv7\6vvvv6\4vvvv4/7vvvv7\6vvvv6\4vvvv------------------------------------|
G|-------------------------------------------------------------------------------|
D|-------------------------------------------------------------------------------|
A|-------------------------------------------------------------------------------|
E|-------------------------------------------------------------------------------|



PIANO SOLO
than

S O L O 4  with heavy distortion

e|--4--6hvv6--4------4--6vv6--/9/11vv--\9vv---\4--6hvv6--4------4--6vv6--/9/11--9|
B|--------------4vv4---------------------------------------4vv4------------------|
G|-------------------------------------------------------------------------------|
D|-------------------------------------------------------------------------------|
A|-------------------------------------------------------------------------------|
E|-------------------------------------------------------------------------------|


Hold "11" with the pointerfinger while pulling the "13" with ringfinger


e|-/14vv14--11--13--11--11--13p--11--11--13p--11--13p--11--13p--11--\9-----------|
B|-------------------------------------------------------------------------------|
G|-------------------------------------------------------------------------------|
D|-------------------------------------------------------------------------------|
A|-------------------------------------------------------------------------------|
E|-------------------------------------------------------------------------------|

e|-/14vv14--11--13--11--11--13p--11--11--13p--11--13p--11--13p--11--\9-----------|
B|-------------------------------------------------------------------------------|
G|-------------------------------------------------------------------------------|
D|-------------------------------------------------------------------------------|
A|-------------------------------------------------------------------------------|
E|-------------------------------------------------------------------------------|


Next part is improvised. Not the original way it is played!
Hold "9" with the pointer finger and use middlefinger for the "11" and the pinky
for the switch between "13" and "14"and play it fast.

e|-9--11-9--14--9--11-9--13--9--11-9--14--9--11-9--13--9--11--9--14--9--11--9--13|
B|-------------------------------------------------------------------------------|
G|-------------------------------------------------------------------------------|
D|-------------------------------------------------------------------------------|
A|-------------------------------------------------------------------------------|
E|-------------------------------------------------------------------------------|

e|-9--11-9--14--9--11-9--13--9--11-9--14--9--11-9--13--9--11--9--14--9--11--9--13|
B|-------------------------------------------------------------------------------|
G|-------------------------------------------------------------------------------|
D|-------------------------------------------------------------------------------|
A|-------------------------------------------------------------------------------|
E|-------------------------------------------------------------------------------|


e|-13--14--17--19--21vvv \-------------------------------------------------------|
B|-------------------------------------------------------------------------------|
G|-------------------------------------------------------------------------------|
D|-------------------------------------------------------------------------------|
A|-------------------------------------------------------------------------------|
E|-------------------------------------------------------------------------------|


e|-------------------------------------------------------------------------------|
B|-7----7--9--7--11--9--7--9--9--11--7-------------------------------------------|
G|-------------------------------------------------------------------------------|
D|-------------------------------------------------------------------------------|
A|-------------------------------------------------------------------------------|
E|-------------------------------------------------------------------------------|

e|-------------------------------------------------------------------------------|
B|-7----7--9--7--11--9--7--9--9--11--7-------------------------------------------|
G|-------------------------------------------------------------------------------|
D|-------------------------------------------------------------------------------|
A|-------------------------------------------------------------------------------|
E|-------------------------------------------------------------------------------|

e|-------------------------------------------------------------------------------|
B|-7----7--9--7--11--9--7--9--9--11--7-------------------------------------------|
G|-------------------------------------------------------------------------------|
D|-------------------------------------------------------------------------------|
A|-------------------------------------------------------------------------------|
E|-------------------------------------------------------------------------------|

                                       F# strum it until the end     F# Full
e|-------------------------------------------------------------------------------|
B|-7----7--9--7--11--9--7--9--9--11----------------------------------------------|
G|------------------------------------11------------------------------11---------|
D|------------------------------------11------------------------------11---------|
A|------------------------------------9-------------------------------9----------|
E|-------------------------------------------------------------------------------|




************************************

| /   slide up
| \   slide down
| h   hammer-on
| p   pull-off
| ~   vibrato
| +   harmonic
| x   Mute note
| b   Bend
| pb  Pre-bend
| br  Bend release
| pbr Pre-bend release
| brb Bend release bend

************************************
Tap to rate this tab
# A B C D E F G H I J K L M N O P Q R S T U V W X Y Z