Song name
# A B C D E F G H I J K L M N O P Q R S T U V W X Y Z

Fleetwood Mac - Without You tab

-----------------------------------------------------------------
                   Without You-Fleetwood Mac
-----------------------------------------------------------------

Tabbed By :
e-mail:

Tuning:EADGBe
00:00
  Cm7
E|---------------------------------------------------------------|
B|---------------------------------------------------------------|
G|------8----------------------8---------------------8-----------|
D|----8---8-10---------------8---8-10--------------8---8-10------|
A|-10---------------------10--------------------10---------------|
E|---------------------------------------------------------------|
Guitar 1

E|---------------------------------------------------------------|
B|---------------------------------------------------------------|
G|---------------10b12~-----------------10b12~~------------------|
D|---------------------------------------------------------------|
A|---------------------------------------------------------------|
E|---------------------------------------------------------------|
Guitar 2

00:12
  I'm crazy for my baby               but my baby, she don't love me
E|------------------------------------------------------------------|
B|------------------------------------------------------------------|
G|---------------------------8--------------------------8-----------|
D|-------------------------8---8-10-------------------8---8-10------|
A|----------------------10--------------------------10--------------|
E|------------------------------------------------------------------|
Guitar 1

00:23

E|---------------------------------------------------------------|
B|---------------------------------------------------------------|
G|---------------------8-------------------------------10-8h10~--|
D|-------------------8---8-10------------------------8-----------|
A|----------------10------------------------------10-------------|
E|---------------------------------------------------------------|
Guitar 1

E|---------------------------------------------------------------|
B|-------------------------------11-8----------------------------|
G|----------8-------10b12~~-----------10b12-10-8~---------8h10~--|
D|----8-------10-------------------------------------------------|
A|-10----10------------------------------------------------------|
E|---------------------------------------------------------------|
Guitar 2              ^Quietly

00:33
  Fm7
  I'm so lonely babe                    I'm so lonely babe
E|---------------------------------------------------------------|
B|---------------------------------------------------------------|
G|-10b12-10-8---------------10br12~------10b12-10-8--------------|
D|------------10----------8-------------------------10-----------|
A|---------------------10----------------------------------------|
E|---------------------------------------------------------------|

00:41
  Cm7
E|-------------------------------------------------------------------|
B|-------------------------------------------------------------------|
G|------8--------------------8---------------------------------------|
D|----8---8-10-------------8---8-10----------------------------------|
A|-10-------------------10-------------------------------------------|
E|-------------------------------------------------------------------|
Guitar 1

E|------------------------------------------------------------------|
B|----------------------------------------11-8----------------------|
G|-------------10b12~~------------------8------11-10-10b12-10-8-10-8|
D|------------------------------------------------------------------|
A|------------------------------------------------------------------|
E|------------------------------------------------------------------|
Guitar 2

00:50      G7 ^                                   Cm7
                No I can't live without you babe
E|---------------------------------------------------------------|
B|---------------------------------------------------------------|
G|-----8---10----10-------------10----------------10br12~--------|
D|----8-----9----9--------------9--------------------------------|
A|-10------10----10-------------10-------------------------------|
E|---------------------------------------------------------------|


00:57
                  I'm so lonely babe
E|---------------------------------------------------------------|
B|---------------------------------------------------------------|
G|-----------------------------------------8---------------------|
D|---------------------------------------8---8-10----------------|
A|------------------------------------10-------------------------|
E|---------------------------------------------------------------|

01:03

E|---------------------------------------------------------------|
B|---------------------------------------------------------------|
G|------------------------------8-------------------------8------|
D|----------------------------8---8-10------------------8---8-10-|
A|-------------------------10------------------------10----------|
E|---------------------------------------------------------------|
Guitar 1

E|-8----------------8------------------------8-11-8~-------------|
B|---8----8--------------------------------8---------------------|
G|-----10---8-----8----------------------------------------------|
D|------------10-------------------------------------------------|
A|---------------------------------------------------------------|
E|---------------------------------------------------------------|
 Guitar 2         ^lightly                 ^lightly

01:13
   I woke up last night                   I found she was gone
E|-----------------------------------------------------------------------------------------|
B|-----------------------------------------------------------------------------------------|
G|----------------------------8---------------------------------------8--------------------|
D|--------------------------8---8-10--------------------------------8---8-10---------------|
A|-----------------------10--------------------------------------10------------------------|
E|-----------------------------------------------------------------------------------------|

E|-----------------------------------------------------------------------------------------|
B|-----------------------------------------------------------------------------------------|
G|----------------------------------------------------------------10br12-------8-----------|
D|-----------------------------------------------------------------------------------------|
A|-----------------------------------------------------------------------------------------|
E|-----------------------------------------------------------------------------------------|

01:24
   I woke up last night                   I found she was gone
E|-----------------------------------------------------------------------------------------|
B|-----------------------------------------------------------------------------------------|
G|----------------------------8---------------------------------------10-8h10--------------|
D|--------------------------8---8-10--------------------------------8----------------------|
A|-----------------------10--------------------------------------10------------------------|
E|-----------------------------------------------------------------------------------------|
Guitar 1

E|-----------------------------------------------------------------------------------------|
B|-----------------------11-8--------------------------------------------------------------|
G|----------------------------10-8-10-8-10b12~---------------------------------------------|
D|-----------------------------------------------------------------------------------------|
A|-----------------------------------------------------------------------------------------|
E|-----------------------------------------------------------------------------------------|
Guitar 2

01:34
  Fm7
  I'm so lonely babe                      I'm so lonely babe
E|---------------------------------------------------------------|
B|---------------------------------------------------------------|
G|-10b12-10-8--------------8-10br12~~-----10b12-10-8-------------|
D|------------10--------10---------------------------10----------|
A|---------------------------------------------------------------|
E|---------------------------------------------------------------|

01:42
  Cm7
E|---------------------------------------------------------------------------|
B|---------------------------------------------------------------------------|
G|------8----------------------8---------------------------------------8/10--|
D|----8---10-----------------8---8-10--------------------------------8-------|
A|-10---------------------10--------------------------------------10---------|
E|---------------------------------------------------------------------------|
Guitar 1

E|---------------------------------------------------------------|
B|-------------------------------------11b13-11-8----------------|
G|--------10b12~~---------------------------------10-8----10-----|
D|-----------------------------------------------------10--------|
A|---------------------------------------------------------------|
E|---------------------------------------------------------------|
Guitar 2

01:54
   G7 ^                                   Cm7
                No I can't live without you babe
E|-------------------------------------------------8-------------|
B|-----------------------------------------------8---------------|
G|-----10--------------------------10----------------------------|
D|---9------------------------------9----------------------------|
A|-10------------------------------10----------------------------|
E|---------------------------------------------------------------|

02:00
 I'm so lonely babe
E|---------------------------------------------------------------|
B|------------------11b13~--11-8---------------------------------|
G|-------------------------------10-8-10b12--12pb10p8------------|
D|----------------------------------------------------10---------|
A|---------------------------------------------------------------|
E|---------------------------------------------------------------|

(Guitar 1 repeats the usual riff in the background every 4-5 seconds, about the 
start of every phrase)
 02:13
E|---------------------------------------------------------------|
B|-------------------------------11-8------/8--------------------|
G|----8-10b12-10-8-10-/12~------------10-8----10h12---8----------|
D|-10---------------------------------------------------8-10-----|
A|---------------------------------------------------------------|
E|---------------------------------------------------------------|

02:23
E|--------------------------------------8------11-8--------8~~---|
B|-11b13-11-8---------------------11b13---11-8-------11b13-------|
G|------------10-8----8-10b12~-----------------------------------|
D|-----------------10--------------------------------------------|
A|---------------------------------------------------------------|
E|---------------------------------------------------------------|

                     |subtle difference in phrasing|
02:32      Fm7            V              V
E|-------------------------------------------------|
B|-------------------------------------------------|
G|-10b12-10-8---------10b12--10-8---10b12-10-8-----|
D|------------10-8-10------------------------------|
A|-------------------------------------------------|
E|-------------------------------------------------|

02:38                  Cm7
E|------------------------8-11-13-13b15-13b15-13b15--------------|
B|-11-8----8-----------11----------------------------------------|
G|------10---8---------------------------------------------------|
D|-------------10------------------------------------------------|
A|---------------------------------------------------------------|
E|---------------------------------------------------------------|

02:49                                             G7
E|---------------------------------------------------------------|
B|----8h11p8-----------------------------------11-8-----8--------|
G|--x--------10br12p8-----------8-10-10b12~---------10b----------|
D|-x-----------------------8-10----------------------------------|
A|----------------------10---------------------------------------|
E|---------------------------------------------------------------|

                                          Cm7
02:59                                  v almost inaudible
E|---11b13~----8~------------------------------------------------|
B|-8--------11---------11-8---------8-------8---------8----------|
G|--------------------------10-8-10---10------10-8-10---10-------|
D|---------------------------------------------------------------|
A|---------------------------------------------------------------|
E|---------------------------------------------------------------|

03:09
E|------------|
B|-11b14~~~~~~|  This bend here is a lovely wail to finish the solo
G|------------|    so go very heavy on the vibrato.
D|------------|
A|------------|
E|------------|

03:16
              I woke up last night             found she was gone
E|---------------------------------------------------------------|
B|---------------------------------------------------------------|
G|------8------------------------------8-------------------------|
D|----8---8-10-----------------------8---8-10--------------------|
A|-10-----------------------------10-----------------------------|
E|---------------------------------------------------------------|

  I woke up last night                   I found she was gone
E|-----------------------------------------------------------------------------------------|
B|-----------------------------------------------------------------------------------------|
G|----------------------------8---------------------------------------10-8h10--------------|
D|--------------------------8---8-10--------------------------------8----------------------|
A|-----------------------10--------------------------------------10------------------------|
E|-----------------------------------------------------------------------------------------|

03:38
Fm7                                                           Cm7
  I'm so lonely babe                      I'm so lonely babe
E|---------------------------------------------------------------|
B|---------------------------------------------------------------|
G|-10b12-10-8--------------8-10br12~~-----10b12-10-8-------------|
D|------------10--------10---------------------------10-10-------|
A|---------------------------------------------------------------|
E|---------------------------------------------------------------|

03:47                                     G7

E|---------------------------------------------------------------|
B|---------------------------------------------------------------|
G|--------------8------------------------------------------------|
D|------------8---8-10----------------------9--13h15p13-9--------|
A|---------10----------------------------10----------------------|
E|---------------------------------------------------------------|
Guitar 1

E|-----------------8---------------------------------------------|
B|---------------8---11-8----------------------------------------|
G|-10b12~~----10----------10-8-----10b---------------------------|
D|-----------------------------10--------------------------------|
A|---------------------------------------------------------------|
E|---------------------------------------------------------------|
Guitar 2

03:58
                                                   Cm7
           No I can't live without you babe
E|---------------------------------------------------------------|
B|---------------------------------------------------------------|
G|---------10-------------10-------------------------------------|
D|----------9-------------9------------------------------8-------|
A|---------10-------------10-----------------13h15-13h15---10----|
E|---------------------------------------------------------------|

|------------------------------------------------------8---------|
B|-------------------------------------------------8-11---11b13~-|
G|---------------------------------------------------------------|
D|---------------------------------------------------------------|
A|---------------------------------------------------------------|
E|---------------------------------------------------------------|

 04:04                                                                     04:12
    I'm so lonely babe          *                                              *
E|--------------------------------------------------------------------------------------|
B|--------------------------------------------------------------------------------------|
G|----------------------------8-------------------------------------------------8-------|
D|--------------------------8---10--------------------------------------------8---8-10--|
A|-----------------------10------------------------------------------------10-----------|
E|--------------------------------------------------------------------------------------|
Guitar 1     *=same time
                                       *                                       *
E|-------------------------------------------------8------------------------------------|
B|--------------------------------------------8-11---11-8-------------------------------|
G|----------------------------10br12p8-----10b-----------11-10b12-10-8---------10p8----8|
D|-------------------------------------10-------------------------------------------10--|
A|--------------------------------------------------------------------------------------|
E|--------------------------------------------------------------------------------------|
Guitar 2

 04:17
E|----------------------------------------------------------11b13------8----------------|
B|-8-11--8-11--8-11--8--11b13~~~-------8-11-8--11b13~~---11--------------11-8-----------|
G|----------------------------------10----------------------------------------10b12-----|
D|----------------------------------------------------------------------------------10-8|
A|--------------------------------------------------------------------------------------|
E|--------------------------------------------------------------------------------------|



| /  slide up
| \  slide down
| h  hammer-on
| p  pull-off
| ~  vibrato
| +  harmonic
| x  Mute note
Tap to rate this tab
 
# A B C D E F G H I J K L M N O P Q R S T U V W X Y Z