Song name
# A B C D E F G H I J K L M N O P Q R S T U V W X Y Z

Fleetwood Mac - Oh Well tab

------------------------------------------------------------------------------------------
                             OH WELL - PART 1 Ė Fleetwood Mac
                                        (PA Green)
                                   Greatest Hits [1971]
------------------------------------------------------------------------------------------


Tabbed by: varannion
Email:     dm_hughes1@hotmail.com


Tuning: Standard


   Intro
   Steel-string acoustic guitar

e|----------------------|------------------------|-------------------------|
B|----------------------|------------------------|-------------------------|
G|----------------------|------------------------|-------------------------|
D|----------------------|-------0----------------|-------------------------|
A|----------------------|--0h2-------0h2p0-------|-----2--x--2--x--2-------|
E|--------------0--3p0--|-------------------3p0--|--0--0--x--0--x--0--3p0--|




e|----------------------|-------------------------|------------------------|
B|----------------------|-------------------------|------------------------|
G|----------------------|-------------------------|------------------------|
D|---------0---------2--|-----2--x--2--x--2-------|-------0----------------|
A|----0h2-------0h2-----|-----2--x--2--x--2-------|--0h2-------0h1p0-------|
E|----------------------|--0--0--x--0--x--0--3p0--|-------------------3p0--|




e|---------------------------|------------------------|-----------------------|
B|---------------------------|------------------------|-----------------------|
G|---------------------------|------------------------|-----------------------|
D|----------x--2--x--2-------|-------0h2--0-----------|-----------------------|
A|-------2--x--2--x--2-------|--0h2----------2--0-----|-----------------------|
E|----0--0--x--0--x--0--3p0--|---------------------3--|--2--0--0------0--3p0--|
 | Electric guitar 1
e|---------------------------|------------------------|-----------------------|
B|---------------------------|------------------------|-----------------------|
G|---------------------------|------------------------|-----------------------|
D|---------------------------|------------------------|-----------------------|
A|---------------------------|------------------------|-----------------------|
E|---------------------------|------------------------|---------------0--3p0--|




e|--------------------------|-------------------------|--------------------|
B|--------------------------|-------------------------|--------------------|
G|--------------------------|-------------------------|--------------------|
D|---------0----------------|-------------------------|-------0---------2--|
A|----0h2-------0h2p0-------|-----2--x--2--x--2-------|--0h2-------0h2-----|
E|---------------------3p0--|--0--0--x--0--x--0--3p0--|--------------------|
 |
e|--------------------------|-------------------------|--------------------|
B|--------------------------|-------------------------|--------------------|
G|--------------------------|-------------------------|--------------------|
D|---------0----------------|-------------------------|-------0---------2--|
A|----0h2-------0h2p0-------|-----2-------------------|--0h2-------0h2-----|
E|---------------------3p0--|--0--0-----0-----0--3p0--|--------------------|




e|---------------------------|------------------------|-------------------------|
B|---------------------------|------------------------|-------------------------|
G|---------------------------|------------------------|-------------------------|
D|-------2--x--2--x--2-------|-------0----------------|--------x--2--x--2-------|
A|-------2--x--2--x--2-------|--0h2-------0h1p0-------|-----2--x--2--x--2-------|
E|----0--0--x--0--x--0--3p0--|-------------------3p0--|--0--0--x--0--x--0--3p0--|
 |
e|---------------------------|------------------------|-------------------------|
B|---------------------------|------------------------|-------------------------|
G|---------------------------|------------------------|-------------------------|
D|---------------------------|-------0----------------|-------------------------|
A|---------------------------|--0h2-------------------|-------------------------|
E|----0--0-----0-----0--3p0--|------------5b6r5--3p0--|--0--0-----0-----0--3p0--|




e|--------------------------|------------------------|-------------------------|
B|--------------------------|------------------------|-------------------------|
G|--------------------------|------------------------|-------------------------|
D|---------0h2--0-----------|------------------------|--0h2--2--2-(2)--2----2--|
A|----0h2----------2--0-----|------------------------|-------------------------|
E|-----------------------3--|--2--0--0------0--0--0--|-------------------------|
 |
e|--------------------------|------------------------|-------------------------|
B|--------------------------|------------------------|-------------------------|
G|--------------------------|------------------------|-------------------------|
D|---------0h2--0-----------|------------------------|-------------------------|
A|----0h2----------2-p0-----|------------------------|-------------------------|
E|-----------------------3--|--2--0-----0------------|-------------------------|


                | --- mu --- |                                        | --- mu --- |

e|-----------------------------|-------------------------|---------------------------|
B|--------------x--x--x--x--x--|-------------------------|------------x--x--x--x--x--|
G|--------------x--x--x--x--x--|-------------------------|------------x--x--x--x--x--|
D|---(2)--2--2--x--x--x--x--x--|--0h2--2--2-(2)--2----2--|-(2)--2--2--x--x--x--x--x--|
A|--------------x--x--x--x--x--|-------------------------|------------x--x--x--x--x--|
E|-----------------------------|-------------------------|---------------------------|
 |
e|-----------------------------|-------------------------|---------------------------|
B|-----------------------------|-------------------------|---------------------------|
G|-----------------------------|-------------------------|---------------------------|
D|-----------------------------|-------------------------|---------------------------|
A|-----------------------------|-------------------------|---------------------------|
E|-----------------------------|-------------------------|---------------------------|
 |              bss                                                  bss   bss   bss
e|-----------------------------|-------------------------|---------------------------|
B|--------------12--(12)-------|-(12)--------------------|-----------12--------------|
G|--------------12--(12)-------|-(12)--------------------|-----------12----12----12--|
D|-----------------------------|-------------------------|---------------------------|
A|-----------------------------|-------------------------|---------------------------|
E|-----------------------------|-------------------------|---------------------------|


                                            | -- mu -- |

e|---------------------------|---------------------------|-------------------------|
B|---------------------------|---------------x--x--x--x--|-------------------------|
G|---------------------------|---------------x--x--x--x--|-------------------------|
D|----0h2--2--2-(2)--2----2--|-(2)--2--2-----x--x--x--x--|--0h2--2--2-(2)--2----2--|
A|---------------------------|---------------x--x--x--x--|-------------------------|
E|---------------------------|---------------------------|-------------------------|
 | 
e|---------------------------|---------------------------|-------------------------|
B|---------------------------|---------------------------|-------------------------|
G|---------------------------|---------------------------|-------------------------|
D|---------------------------|---------------------------|-------------------------|
A|---------------------------|---------------------------|-------------------------|
E|---------------------------|---------------------------|-------------------------|
 |                                       bss     bss bss
e|---------------------------|---------------------------|-------------------------|
B|---------------------------|-----------12------12--12--|-------------------------|
G|---------------------------|-----------12------12--12--|-------------------------|
D|---------------------------|---------------14----------|-------------------------|
A|---------------------------|---------------------------|-------------------------|
E|---------------------------|---------------------------|-------------------------|


                   | -- mu -- |

e|------------------------------|-------------------|-------------------------|
B|------------------x--x--x--x--|-------------------|-------------------------|
G|------------------x--x--x--x--|----------0--------|-------------------------|
D|----(2)--2--2-----x--x--x--x--|--0h2--2-----2--2--|--0h2--------------------|
A|------------------x--x--x--x--|-------------------|-------------------------|
E|------------------------------|-------------------|---------0--(0)--0----0--|
 |                                      ~~~      ~~~        ~~~
e|------------------------------|-------------------|-------------------------|
B|------------------------------|-------------------|-------------------------|
G|------------------------------|----------12-------|-------------------------|
D|------------------------------|--12h14-------14---|--12h14----(14)----------|
A|------------------------------|-------------------|-------------------------|
E|------------------------------|-------------------|-------------------------|




e|---------------------|-------------------------|-------------------|
B|---------------------|-------------------------|----------0--------|
G|------------0--------|-------------------------|----------0--------|
D|----0h2--2-----2--2--|--0h2--------------------|--0h2--2-----2--2--|
A|---------------------|-------------------------|-------------------|
E|---------------------|---------0--(0)--0----0--|-------------------|
 |         ~~~      ~~~        ~~~                       ~~~      ~~~
e|---------------------|-------------------------|-------------------|
B|---------------------|-------------------------|-------------------|
G|------------12-------|-------------------------|----------12-------|
D|----12h14-------14---|--12h14----(14)----------|--12h14-------14---|
A|---------------------|-------------------------|-------------------|
E|---------------------|-------------------------|-------------------|




e|---------------------------|-------------------|-------------------------|
B|---------------------------|-------------------|-------------------------|
G|---------------------------|----------0--------|-------------------------|
D|----0h2--------------------|--0h2--2-----2--2--|--0h2--------------------|
A|---------------------------|-------------------|-------------------------|
E|-----------0--(0)--0----0--|-------------------|---------0--(0)--0----0--|
 |         ~~~                       ~~~      ~~~        ~~~
e|---------------------------|-------------------|-------------------------|
B|---------------------------|-------------------|-------------------------|
G|---------------------------|----------12-------|-------------------------|
D|----12h14----(14)----------|--12h14-------14---|--12h14----(14)----------|
A|---------------------------|-------------------|-------------------------|
E|---------------------------|-------------------|-------------------------|




e|---------------------|-------------------|-------------------------|
B|---------------------|-------------------|-------------------------|
G|------------0--------|--2-------3--------|-------------------------|
D|----0h2--2-----2-----|-----2-------2-----|-------------------0--1--|
A|---------------------|-------------------|-----0--1-(1)---2--------|
E|---------------------|-------------------|--3----------------------|
 |         ~~~
e|---------------------|-------------------|-------------------------|
B|---------------------|-------------------|-------------------------|
G|------------12-(12)--|--14-(14)-15-------|-------------------------|
D|----12h14-------14---|------14-----14----|-------------------12-13-|
A|---------------------|-------------------|--10-12-13-(13)-14-------|
E|---------------------|-------------------|-------------------------|
 | Electric guitar 2
e|---------------------|-------------------|-------------------------|
B|---------------------|-------------------|-------------------------|
G|---------------------|-------------------|-------------------------|
D|---------------------|-------------------|----------------5--7--8--|
A|---------------------|-------------------|-----5--7-(7)------------|
E|---------------------|-------------------|--7----------------------|

                                                      Verse 1
                                                      I canít help
                      ~~~~~~~
e|------------------------|------------------------|------------------------|
B|----------------3-h5----|-(5)--------------------|------------------------|
G|-------0--2-/4----------|------------------------|------------------------|
D|----2-------------------|------------------------|------------------------|
A|------------------------|------------------------|------------------------|
E|------------------------|------------------------|------------------------|
 |                    ~~~~~~~
e|------------------------|------------------------|------------------------|
B|----------------15-17---|-(17)-------------------|------------------------|
G|-------12-14/16---------|------------------------|------------------------|
D|----14------------------|------------------------|------------------------|
A|------------------------|------------------------|------------------------|
E|------------------------|------------------------|------------------------|
 |                    ~~~~~~~
e|------------------------|------------------------|------------------------|
B|----------------10p8----|-(8)--------------------|------------------------|
G|-------7--8-/9----------|------------------------|------------------------|
D|----9-------------------|------------------------|------------------------|
A|------------------------|------------------------|------------------------|
E|------------------------|------------------------|------------------------|


    about the shape Iím in   I canít sing, I ainít pretty and my legs are thin

e|--------------------------|------------------------|------------------------|
B|--------------------------|------------------------|------------------------|
G|--------------------------|------------------------|------------------------|
D|--------------------------|------------------------|------------------------|
A|--------------------------|------------------------|------------------------|
E|--------------------------|------------------------|------------------------|
 |
e|--------------------------|------------------------|------------------------|
B|--------------------------|------------------------|------------------------|
G|--------------------------|------------------------|------------------------|
D|--------------------------|------------------------|------------------------|
A|--------------------------|------------------------|------------------------|
E|--------------------------|------------------------|------------------------|


    But donít ask me what I think of you, I might not give the answer that you

e|--------------------------|------------------------|------------------------|
B|--------------------------|------------------------|------------------------|
G|--------------------------|------------------------|------------------------|
D|--------------------------|------------------------|------------------------|
A|--------------------------|------------------------|------------------------|
E|--------------------------|------------------------|------------------------|
 |
e|--------------------------|------------------------|------------------------|
B|--------------------------|------------------------|------------------------|
G|--------------------------|------------------------|------------------------|
D|--------------------------|------------------------|------------------------|
A|--------------------------|------------------------|------------------------|
E|--------------------------|------------------------|------------------------|


    want me to

e|----------------------|------------------------|-------------------------|
B|----------------------|------------------------|-------------------------|
G|----------------------|------------------------|-------------------------|
D|----------------------|-------0----------------|-------------------------|
A|----------------------|--0h2-------0h2p0-------|-----2--x--2--x--2-------|
E|--------------0--3p0--|-------------------3p0--|--0--0--x--0--x--0--3p0--|
|
e|----------------------|------------------------|-------------------------|
B|----------------------|------------------------|-------------------------|
G|----------------------|------------------------|-------------------------|
D|----------------------|------------------------|-------------------------|
A|----------------------|------------------------|-------------------------|
E|----------------------|------------------------|-----------------0--3p0--|



e|----------------------|-------------------------|------------------------|
B|----------------------|-------------------------|------------------------|
G|----------------------|-------------------------|------------------------|
D|---------0---------2--|-----2--x--2--x--2-------|-------0----------------|
A|----0h2-------0h2-----|-----2--x--2--x--2-------|--0h2-------0h1p0-------|
E|----------------------|--0--0--x--0--x--0--3p0--|-------------------3p0--|
 |
e|----------------------|-------------------------|------------------------|
B|----------------------|-------------------------|------------------------|
G|----------------------|-------------------------|------------------------|
D|---------0---------2--|-------------------------|------------------------|
A|----0h2-------0h2-----|-------------------------|------------------------|
E|----------------------|--0--0-----0-------------|------------------------|


                                Oh     well!

e|---------------------------|------------------------|------------------------|
B|---------------------------|------------------------|------------------------|
G|---------------------------|------------------------|------------------------|
D|----------x--2--x--2-------|-------0h2--0-----------|------------------------|
A|-------2--x--2--x--2-------|--0h2----------2--0-----|------------------------|
E|----0--0--x--0--x--0--3p0--|---------------------3--|--2--0--0------0--0--0--|
 |
e|---------------------------|------------------------|------------------------|
B|---------------------------|------------------------|------------------------|
G|---------------------------|------------------------|------------------------|
D|---------------------------|-------0h2--0-----------|------------------------|
A|---------------------------|--0h2----------2-p0-----|------------------------|
E|---------------------------|---------------------3--|--2--0-----0------------|




e|---------------------|-------------------------|-------------------|
B|------------0--------|-------------------------|----------0--------|
G|------------0--------|-------------------------|----------0--------|
D|----0h2--2-----2--2--|--0h2--------------------|--0h2--2-----2--2--|
A|---------------------|-------------------------|-------------------|
E|---------------------|---------0--(0)--0----0--|-------------------|
 |         ~~~      ~~~        ~~~                       ~~~      ~~~
e|---------------------|-------------------------|-------------------|
B|---------------------|-------------------------|-------------------|
G|------------12-------|-------------------------|----------12-------|
D|----12h14-------14---|--12h14----(14)----------|--12h14-------14---|
A|---------------------|-------------------------|-------------------|
E|---------------------|-------------------------|-------------------|




e|---------------------------|-------------------|-------------------|
B|---------------------------|-------------------|-------------------|
G|---------------------------|----------0--------|--2-------3--------|
D|----0h2--------------------|--0h2--2-----2-----|-----2-------2-----|
A|---------------------------|-------------------|-------------------|
E|-----------0--(0)--0----0--|-------------------|-------------------|
 |         ~~~                       ~~~                 ~~~
e|---------------------------|-------------------|-------------------|
B|---------------------------|-------------------|-------------------|
G|---------------------------|----------12-(12)--|--14-(14)-15-------|
D|----12h14----(14)----------|--12h14-------14---|------14-----14----|
A|---------------------------|-------------------|-------------------|
E|---------------------------|-------------------|-------------------|




e|-------------------------|---------------------|-------------------|
B|-------------------------|---------------------|-------------------|
G|-------------------------|---------------------|-------------------|
D|----------------------0--|------1----2------5--|-(5)---------------|
A|------------0----2-------|---------------------|-------------------|
E|----0--3-----------------|---------------------|-------------------|
 |
e|-------------------------|---------------------|-------------------|
B|-------------------------|---------------------|-------------------|
G|-------------------------|-----------7------9--|-(9)---------------|
D|-----------------5----7--|------9--------------|-------------------|
A|-------5----7------------|---------------------|-------------------|
E|----7--------------------|---------------------|-------------------|
 |
e|-------------------------|---------------------|-------------------|
B|-------------------------|------------------8--|-(8)---------------|
G|----------------------7--|-(7)--8----9---------|-------------------|
D|----5--7----8-(8)-9------|---------------------|-------------------|
A|-------------------------|---------------------|-------------------|
E|-------------------------|---------------------|-------------------|

                               Guitar solo


e|--------------------------|------------------------|
B|--------------------------|-----------------15b17--|
G|--------------------------|------------------------|
D|--------------------------|------------------------|
A|--------------------------|------------------------|
E|--------------------------|------------------------|

             ~~~~                       slow

e|--------------------------|------------------------|------12----------------|
B|------15b17---------------|----------15--b17-------|-(17)-------12----------|
G|--------------------------|------------------------|----------------14--12--|
D|--------------------------|------------------------|------------------------|
A|--------------------------|------------------------|------------------------|
E|--------------------------|------------------------|------------------------|


                                                                 ~~~~~~~~

e|--------------------------|--------------------------|---------------------|
B|--------------------------|--------------------------|---------------------|
G|---(12)--14---------------|--------------12h14-12----|----14b16----(16)----|
D|--------------------------|-------12h14--------------|---------------------|
A|--------------------------|----14--------------------|---------------------|
E|--------------------------|--------------------------|---------------------|


      | -- rpb & release slightly after each pick -- |

e|-----------------------------------------------------|--------------------------|
B|-----------------------------------------------------|--------------------------|
G|----(16)r-(16)r-(16)r-(16)r-(16)r-(16)r-(16)r-(16)r--|--(16)r14--12--(12)-------|
D|-----------------------------------------------------|--------------------------|
A|-----------------------------------------------------|--------------------------|
E|-----------------------------------------------------|--------------------------|


      | -- rpb & release slightly after each pick -- |

e|-----------------------------------------------------|--------------------------|
B|-----------------------------------------------------|--------------------------|
G|----(16)r-(16)r-(16)r-(16)r-(16)r-(16)r-(16)r-(16)r--|--(16)r14--12--(12)-------|
D|-----------------------------------------------------|--------------------------|
A|-----------------------------------------------------|--------------------------|
E|-----------------------------------------------------|--------------------------|


      pb                  ~~~~

e|------------------------------|-----------------------12--|
B|------------------------------|--12--15--------15b17------|
G|---(14b)-16r14p12--14b16------|---------------------------|
D|------------------------------|---------------------------|
A|------------------------------|---------------------------|
E|------------------------------|---------------------------|


                     | ---- rpb ---- |            ~~~~~

e|----------12-------------------------------|------------------------|
B|----15b17----------------------------------|------------------------|
G|-------------14b16-(16)-(16)-(16)-(16)r14--|--12--------------------|
D|-------------------------------------------|------------------------|
A|-------------------------------------------|------------------------|
E|-------------------------------------------|------------------------|

                                                          Cow-bell solo
                      bss bss      ~~~~

e|----------------------------|------------------------|------------------------|
B|----------------------------|------------------------|------------------------|
G|--------------------12--12--|------------------------|------------------------|
D|------------12--14----------|--14--------------------|------------------------|
A|--------14------------------|------------------------|------------------------|
E|----------------------------|------------------------|------------------------|

                                                       Verse 2
                                                      Now, when I talked to God

e|--------------------------|------------------------|------------------------|
B|--------------------------|------------------------|------------------------|
G|--------------------------|------------------------|------------------------|
D|--------------------------|------------------------|------------------------|
A|--------------------------|------------------------|------------------------|
E|--------------------------|------------------------|------------------------|
 |
e|--------------------------|------------------------|------------------------|
B|--------------------------|------------------------|------------------------|
G|--------------------------|------------------------|------------------------|
D|--------------------------|------------------------|------------------------|
A|--------------------------|------------------------|------------------------|
E|--------------------------|------------------------|------------------------|


    I knew Heíd understand  He said, ďSit by Me and Iíll be your guiding hand

e|--------------------------|------------------------|------------------------|
B|--------------------------|------------------------|------------------------|
G|--------------------------|------------------------|------------------------|
D|--------------------------|------------------------|------------------------|
A|--------------------------|------------------------|------------------------|
E|--------------------------|------------------------|------------------------|
 |
e|--------------------------|------------------------|------------------------|
B|--------------------------|------------------------|------------------------|
G|--------------------------|------------------------|------------------------|
D|--------------------------|------------------------|------------------------|
A|--------------------------|------------------------|------------------------|
E|--------------------------|------------------------|------------------------|


    But donít ask me what I think of you, I might not give the answer that you

e|--------------------------|------------------------|------------------------|
B|--------------------------|------------------------|------------------------|
G|--------------------------|------------------------|------------------------|
D|--------------------------|------------------------|------------------------|
A|--------------------------|------------------------|------------------------|
E|--------------------------|------------------------|------------------------|
 |
e|--------------------------|------------------------|------------------------|
B|--------------------------|------------------------|------------------------|
G|--------------------------|------------------------|------------------------|
D|--------------------------|------------------------|------------------------|
A|--------------------------|------------------------|------------------------|
E|--------------------------|------------------------|------------------------|


    want me toĒ

e|----------------------|------------------------|-------------------------|
B|----------------------|------------------------|-------------------------|
G|----------------------|------------------------|-------------------------|
D|----------------------|-------0----------------|-------------------------|
A|----------------------|--0h2-------0h2p0-------|-----2--x--2--x--2-------|
E|--------------0--3p0--|-------------------3p0--|--0--0--x--0--x--0--3p0--|
 |
e|----------------------|------------------------|-------------------------|
B|----------------------|------------------------|-------------------------|
G|----------------------|------------------------|-------------------------|
D|----------------------|------------------------|-------------------------|
A|----------------------|------------------------|-------------------------|
E|----------------------|------------------------|-------------------------|




e|----------------------|-------------------------|------------------------|
B|----------------------|-------------------------|------------------------|
G|----------------------|-------------------------|------------------------|
D|---------0---------2--|-----2--x--2--x--2-------|-------0----------------|
A|----0h2-------0h2-----|-----2--x--2--x--2-------|--0h2-------0h1p0-------|
E|----------------------|--0--0--x--0--x--0--3p0--|-------------------3p0--|
 |
e|----------------------|-------------------------|------------------------|
B|----------------------|-------------------------|------------------------|
G|----------------------|-------------------------|------------------------|
D|----------------------|-------------------------|-------0----------------|
A|----------------------|-------------------------|--0h2-------------------|
E|----------------------|-----------------0--3p0--|------------5b6r5--3p0--|


                                Oh     well!

e|---------------------------|------------------------|------------------------|
B|---------------------------|------------------------|------------------------|
G|---------------------------|------------------------|------------------------|
D|----------x--2--x--2-------|-------0h2--0-----------|------------------------|
A|-------2--x--2--x--2-------|--0h2----------2--0-----|------------------------|
E|----0--0--x--0--x--0--3p0--|---------------------3--|--2--0--0------0--0--0--|
 |
e|---------------------------|------------------------|------------------------|
B|---------------------------|------------------------|------------------------|
G|---------------------------|------------------------|------------------------|
D|---------------------------|-------0h2--0-----------|------------------------|
A|---------------------------|--0h2----------2-p0-----|------------------------|
E|----0--0-----0-----0--3p0--|---------------------3--|--2--0-----0------------|


                                          | --- mu --- |

e|---------------------------|---------------------------|-------------------------|
B|---------------------------|------------x--x--x--x--x--|-------------------------|
G|---------------------------|------------x--x--x--x--x--|-------------------------|
D|----0h2--2--2-(2)--2----2--|-(2)--2--2--x--x--x--x--x--|--0h2--2--2-(2)--2----2--|
A|---------------------------|------------x--x--x--x--x--|-------------------------|
E|---------------------------|---------------------------|-------------------------|
 |
e|---------------------------|---------------------------|-------------------------|
B|---------------------------|---------------------------|-------------------------|
G|---------------------------|---------------------------|-------------------------|
D|---------------------------|---------------------------|-------------------------|
A|---------------------------|---------------------------|-------------------------|
E|---------------------------|---------------------------|-------------------------|
 |                                        bss
e|---------------------------|---------------------------|-------------------------|
B|---------------------------|------------12--(12)-------|-(12)--------------------|
G|---------------------------|------------12--(12)-------|-(12)--------------------|
D|---------------------------|---------------------------|-------------------------|
A|---------------------------|---------------------------|-------------------------|
E|---------------------------|---------------------------|-------------------------|


                | --- mu --- |                                          | -- mu -- |

e|-----------------------------|-------------------------|---------------------------|
B|--------------x--x--x--x--x--|-------------------------|---------------x--x--x--x--|
G|--------------x--x--x--x--x--|-------------------------|---------------x--x--x--x--|
D|---(2)--2--2--x--x--x--x--x--|--0h2--2--2-(2)--2----2--|-(2)--2--2-----x--x--x--x--|
A|--------------x--x--x--x--x--|-------------------------|---------------x--x--x--x--|
E|-----------------------------|-------------------------|---------------------------|
 | 
e|-----------------------------|-------------------------|---------------------------|
B|-----------------------------|-------------------------|---------------------------|
G|-----------------------------|-------------------------|---------------------------|
D|-----------------------------|-------------------------|---------------------------|
A|-----------------------------|-------------------------|---------------------------|
E|-----------------------------|-------------------------|---------------------------|
 |             bss   bss   bss                                       bss     bss bss
e|-----------------------------|-------------------------|---------------------------|
B|-------------12--------------|-------------------------|-----------12------12--12--|
G|-------------12----12----12--|-------------------------|-----------12------12--12--|
D|-----------------------------|-------------------------|---------------14----------|
A|-----------------------------|-------------------------|---------------------------|
E|-----------------------------|-------------------------|---------------------------|


                                             | -- mu -- |

e|---------------------------|----------------------------|-------------------|
B|---------------------------|----------------x--x--x--x--|-------------------|
G|---------------------------|----------------x--x--x--x--|----------0--------|
D|----0h2--2--2-(2)--2----2--|--(2)--2--2-----x--x--x--x--|--0h2--2-----2--2--|
A|---------------------------|----------------x--x--x--x--|-------------------|
E|---------------------------|----------------------------|-------------------|
 |                                                               ~~~      ~~~
e|---------------------------|----------------------------|-------------------|
B|---------------------------|----------------------------|-------------------|
G|---------------------------|----------------------------|----------12-------|
D|---------------------------|----------------------------|--12h14-------14---|
A|---------------------------|----------------------------|-------------------|
E|---------------------------|----------------------------|-------------------|
| 
e|---------------------------|----------------------------|-------------------|
B|---------------------------|----------------------------|-------------------|
G|---------------------------|----------------------------|-------------------|
D|---------------------------|----------------------------|-------------------|
A|---------------------------|----------------------------|-------------------|
E|---------------------------|----------------------------|-------------------|




e|---------------------------|-------------------|-------------------------|
B|---------------------------|-------------------|-------------------------|
G|---------------------------|----------0--------|-------------------------|
D|----0h2--------------------|--0h2--2-----2--2--|--0h2--------------------|
A|---------------------------|-------------------|-------------------------|
E|-----------0--(0)--0----0--|-------------------|---------0--(0)--0----0--|
 |         ~~~                       ~~~      ~~~        ~~~
e|---------------------------|-------------------|-------------------------|
B|---------------------------|-------------------|-------------------------|
G|---------------------------|----------12-------|-------------------------|
D|----12h14----(14)----------|--12h14-------14---|--12h14----(14)----------|
A|---------------------------|-------------------|-------------------------|
E|---------------------------|-------------------|-------------------------|




e|---------------------|-------------------------|-------------------|
B|------------0--------|-------------------------|-------------------|
G|------------0--------|-------------------------|----------0--------|
D|----0h2--2-----2--2--|--0h2--------------------|--0h2--2-----2--2--|
A|---------------------|-------------------------|-------------------|
E|---------------------|---------0--(0)--0----0--|-------------------|
 |         ~~~      ~~~        ~~~                       ~~~      ~~~
e|---------------------|-------------------------|-------------------|
B|---------------------|-------------------------|-------------------|
G|------------12-------|-------------------------|----------12-------|
D|----12h14-------14---|--12h14----(14)----------|--12h14-------14---|
A|---------------------|-------------------------|-------------------|
E|---------------------|-------------------------|-------------------|




e|---------------------------|-------------------|-------------------|
B|---------------------------|-------------------|-------------------|
G|---------------------------|----------0--------|--2-------3--------|
D|----0h2--------------------|--0h2--2-----2-----|-----2-------2-----|
A|---------------------------|-------------------|-------------------|
E|-----------0--(0)--0----0--|-------------------|-------------------|
 |          ~~~                      ~~~
e|---------------------------|-------------------|-------------------|
B|---------------------------|-------------------|-------------------|
G|---------------------------|----------12-(12)--|--14-(14)-15-------|
D|----12h14----(14)----------|--12h14-------14---|------14-----14----|
A|---------------------------|-------------------|-------------------|
E|---------------------------|-------------------|-------------------|




e|-------------------------|---------------------|-------------------|
B|-------------------------|---------------------|-------------------|
G|-------------------------|---------------------|-------------------|
D|----------------------0--|------1----2------5--|-(5)---------------|
A|------------0----2-------|---------------------|-------------------|
E|----0--3-----------------|---------------------|-------------------|
 |
e|-------------------------|---------------------|-------------------|
B|-------------------------|---------------------|-------------------|
G|-------------------------|-----------7------9--|-(9)---------------|
D|-----------------5----7--|------9--------------|-------------------|
A|-------5----7------------|---------------------|-------------------|
E|----7--------------------|---------------------|-------------------|
 |
e|-------------------------|---------------------|-------------------|
B|-------------------------|------------------8--|-(8)---------------|
G|----------------------7--|-(7)--8----9---------|-------------------|
D|----5--7----8-(8)-9------|---------------------|-------------------|
A|-------------------------|---------------------|-------------------|
E|-------------------------|---------------------|-------------------|

    Classical guitar        
                            rake                       rake rake rake
                            D/F#                       Em
e|-----------------------|---------------------|---------------------|
B|-----------------------|--7------------------|-------0----0----0---|
G|-----------------------|--7------------------|-------0----0----0---|
D|-----------------------|--7------------------|-------5----5----5\--|
A|-----------------------|--9------------------|-------7----7----7\--|
E|-----------------------|---------------------|--0------------------|


      rake                           rake rake   rake
      D6(no 3rd)                     Em          D/F#
e|-----------------------|--------------------|---------------------|
B|-----------------------|-----------0----0---|--7------------------|
G|----4------------------|-----------0----0---|--7------------------|
D|----4------------------|-----------5----5/--|--7------------------|
A|----5------------------|-----------7----7/--|--9------------------|
E|-----------------------|--0-----------------|---------------------|


            rake rake rake  rake                         rake
           Em               D6(no 3rd)                   Em
e|-----------------------|--------------------|---------------------|
B|---------0----0----0---|--------------------|----------0----------|
G|---------0----0----0---|--4-----------------|----------0----------|
D|---------5----5----5---|--4-----------------|----------5/---------|
A|---------7----7----7---|--5-----------------|----------7/---------|
E|----0------------------|--------------------|---------------------|
|   Electric guitar
e|-----------------------|--------------------|---------------------|
B|-----------------------|--------------------|---------------------|
G|-----------------------|--------------------|---------------------|
D|-----------------------|--------------------|---------------------|
A|-----------------------|-------------2/-/7--|---------------------|
E|-----------------------|--------------------|--0------------------|


      rake rake rake  rake    rake        rake
      D/F#                                Em
e|-------------------------|-----------------------|-----------------------|
B|----7----7----7----7-----|--------------0--------|-(0)-------------------|
G|----7----7----7----7-----|--7-----------0--------|-(0)-------------------|
D|----7----7----7----7-----|--7\--\5------5--------|-(5)-------------------|
A|----9----9----9----9h10--|--9\--\7------7--------|-(7)-------------------|
E|-------------------------|--------------0--------|-(0)-------------------|
 |
e|-------------------------|-----------------------|-----------------------|
B|-------------------------|-----------------------|-----------------------|
G|-------------------------|-----------------------|-----------------------|
D|-------------------------|-----------------------|-----------------------|
A|-------------------------|-----------------------|-----------------------|
E|---(0)-------------------|-(0)-------------------|-----------------------|


                            rake rake rake  rake    rake        rake
              Em            D/F#                                Em
e|-----------------------|-----------------------|-------------------------|
B|------------0----------|--7----7----7----7-----|--------------0----------|
G|------------0----------|--7----7----7----7-----|--7-----------0----------|
D|------------5\---------|--7----7----7----7-----|--7\--\5------5----------|
A|------------7\---------|--9----9----9----9h10--|--9\--\7------7----------|
E|-----------------------|-----------------------|--------------0----------|
 |
e|-----------------------|-----------------------|-------------------------|
B|-----------------------|-----------------------|-------------------------|
G|-----------------------|-----------------------|-------------------------|
D|-----------------------|-----------------------|-------------------------|
A|-----------------------|-----------------------|-------------------------|
E|----0------------------|-(0)-------------------|-(0)---------------------|


                                         rake          rake rake rake  rake
                                         B5            Bm
e|-------------------------|-----------------------|----------------------|
B|---(0)-------------------|-----------------------|--7----7----7----7h8--|
G|---(0)-------------------|-----------------------|--7----7----7----7----|
D|---(5)-------------------|------------9----------|--9----9----9----9----|
A|---(7)-------------------|------------9----------|----------------------|
E|---(0)-------------------|------------7----------|----------------------|
 |
e|-------------------------|-----------------------|----------------------|
B|-------------------------|-----------------------|----------------------|
G|-------------------------|-----------------------|----------------------|
D|-------------------------|-----------------------|----------------------|
A|-------------------------|--2--------------------|-(2)------------------|
E|----------------3--2--0--|-----------------------|----------------------|


      rake        rake                                            rake
                  Em                                              Bm
e|----------------0----------|-(0)-------------------|-----------------------|
B|----7-----------0----------|-(0)-------------------|-----------------------|
G|----7\--\5------0----------|-(0)-------------------|------------7----------|
D|----9\--\7------5----------|-(5)-------------------|------------9----------|
A|----------------5----------|-(7)-------------------|------------9----------|
E|---------------------------|-----------------------|------------7----------|
 |
e|---------------------------|-----------------------|-----------------------|
B|---------------------------|-----------------------|-----------------------|
G|---------------------------|-----------------------|-----------------------|
D|---------------------------|-----------------------|-----------------------|
A|---------------------------|-----------------------|--2--------------------|
E|---------------------------|--------------3--2--0--|-----------------------|


      rake rake rake                      rake
                             Am(add9)     Am
e|----7----7----7---------|--0------------5----------|-(5)--------------------|
B|----7----7----7---------|--0------------5----------|-(5)--------------------|
G|----7----7----7---------|--9------------5----------|-(5)--------------------|
D|----9----9----9----9----|--10\----\7----7----------|-(7)--------------------|
A|------------------------|---------------0----------|-(7)--------------------|
E|------------------------|--------------------------|------------------------|
 |
e|------------------------|--------------------------|------------------------|
B|------------------------|--------------------------|------------------------|
G|------------------------|--------------------------|------------------------|
D|------------------------|--------------------------|------------------------|
A|---(2)------------------|--------------------------|---------------------3--|
E|------------------------|--------------------------|------------3--2--0-----|




e|--------------------------|------------------------|------------------------|
B|--------------------------|------------------------|------------------------|
G|--------------------------|------------------------|------------------------|
D|--------------------------|------------------------|------------------------|
A|--------------------------|------------------------|------------------------|
E|--------------------------|------------------------|------------------------|
 |
e|--------------------------|------------------------|------------------------|
B|--------------------------|------------------------|------------------------|
G|--------------------------|------------------------|------------------------|
D|--------------------------|------------------------|------------------------|
A|----2/-/7-----------------|------------------------|------------------------|
E|---------------0----------|-(0)--------------------|------------------------|






/    slide up
\    slide down
h    hammer-on
p    pull-off
b    bend up
r    release bend
mu   mute
pb   pre-bend
co   cut off
bss  bend slightly sharp
rpb  re-pick bend
~~   vibrato

========================================================================= 18 February 2014
Tap to rate this tab
# A B C D E F G H I J K L M N O P Q R S T U V W X Y Z