Song name
# A B C D E F G H I J K L M N O P Q R S T U V W X Y Z

Fleetwood Mac - Worried Dream Live tab

Peter Greens Fleetwood Mac – Worried Dream (live)

|-------------------3-3p6---------------------------------------------------|
|----------------6b-------6p3------13b-11-13-13-------------13b15r11--------|
|-------3~~~~~~-----------------12--------------12~~~~~~~~-----------12-----|
|---3-5---------------------------------------------------------------------|
|-5-------------------------------------------------------------------------|
|---------------------------------------------------------------------------|

|---------------------------------------------------------3-----------------|
|-------11----11-13-13b-13b15~~-------------------------3---6~~-------------|
|-12~~~----12---------------------5b7r3-----------3-5b6---------------------|
|---------------------------------------5p3---3h5---------------------------|
|-------------------------------------------5-------------------------------|
|---------------------------------------------------------------------------|

|---------------------------------------------------------------------------|
|--------13b15r13-11-13b15r11-13-13b15r11-13-13-------18b20~----------------|
|-12~-12----------------------------------------12-----------18p15----------|
|------------------------------------------------------------------17p15----|
|------------------------------------------------------------------------17-|
|---------------------------------------------------------------------------|

|-15------------------------------------18----15--------------------------|
|-18-15----------15h17p17---------15-18----18----18-15h18p15----15h18p15--|
|-------17b20r15----------15---------------------------------17b----------|
|----------------------------17-------------------------------------------|
|-------------------------------------------------------------------------|
|-------------------------------------------------------------------------|

|---------------------------------------15-15~~--------15-15~~-------15~~~--|
|---------------------------------15-18----------15-18---------15-18--------|
|-17b-17p15-17p15---5b7r3---------------------------------------------------|
|-------------------------5p3-----------------------------------------------|
|-----------------------------5---------------------------------------------|
|---------------------------------------------------------------------------|
     V heavy vibrato about 10 times
|---------------------------------------------------------------------------|
|---------------------------------------------------------------------------|
|-17b19~~~~~~~~~~~~~~-17b19-17b19-17b19-17p15-------------------------------|
|---------------------------------------------------------------------------|
|-----------------------------------------------13/2\15---------------------|
|---------------------------------------------------------------------------|

1:41
|------------------------------15--------------------------|
|-18p15-18b19~~-18p15----15-18----18p15--------------------|
|---------------------17----------------17—17b19-17p15-----|
|-----------------------------------------------------17---|
|----------------------------------------------------------|
|----------------------------------------------------------|
                                                              1:50                      
|-----------------------------------------------15-------15----15h18p18---15|
|--------------------------------------------15----15-18----18----------18--|
|----------------------------------15-17-17b--------------------------------|
|-17-16-15-------------------15-17------------------------------------------|
|----------17-16-15----15-17------------------------------------------------|
|-------------------17------------------------------------------------------|

|---------------15h18p15----15-----------------|
|-15h18p15----15---------18----18----------15--|
|----------17---------------------17b19r15-----|
|----------------------------------------------|
|----------------------------------------------|
|----------------------------------------------|

|----20~--18-15h18p18-------------------------15~15~-|
|-15------------------15h18p15----15~---15-18--------|
|------------------------------17--------------------|
|----------------------------------------------------|
|----------------------------------------------------|
|----------------------------------------------------|
2:04
|-------------------------3-----------3-------------------------------------|
|-------------------------3-6-------3---6p5p3-------------------------------|
|-5b7r3-----------------------3h4h5-----------5p4p3---3h5p3-----------------|
|-------5p3-----------3-----------------------------5-------5p3-------------|
|-----------5p3-3-3s5-------------------------------------------5~~---------|
|---------------------------------------------------------------------------|

“Well I feel so bad…”                   
|--3--|
|--3--|
|--3--|
|--5--|
|-----|
|-----|

“I wonder what’s wrong with me…”
|---------------------6p3----|
|-------------------------6~-|
|-------------------5--------|
|---3-5---------3h5----------|
|-5-----5-5p3s5--------------|
|----------------------------|

“Well I feel so bad”
|------------8-10----|
|-------8-11------8~-|
|-----8--------------|
|--10----------------|
|--------------------|
|--------------------|

“I wonder what’s wrong with me...”                         
|-------------------------------------3-----------------------------------6-|
|-----------------------------------3---6p3---3---------------------------6-|
|-5b7r3-----------------------3---5b--------5---5p3---3h5----------3------6-|
|-------5p3---------------3h5---5-------------------5----------------5----8-|
|-----------5p3-1-3p1-3s5----------------------------------5p3-3h5----------|
|---------------------------------------------------------------------------|

“Think I’ll call my baby”
|-3-6----3-|
|-3---3--3-|
|-3------3-|
|----------|
|----------|
|----------|

“Find out just what the matter can be”
|-------------------3-3-3-3-3-3-3-3~---|
|-3-3-3-3-3-3-3-3---3-3-3-3-3-3-3-3~---|
|-3-3-3-3-3-3-3-3----------------------|
|-----------------5--------------------|
|--------------------------------------|
|--------------------------------------|

“Last night I dreamed about my baby”
|-----------3-|
|-----------3-|
|-5b7r5-3~----|
|-------------|
|-------------|
|-------------|

“I woke up and the tears were runnin all down my face”
|-3-------------------------------------------|
|-3-------------------3-3---------------------|
|---3---5p3-------3h5-----5p3---------3-------|
|-----5-----5p3h5-------------5-5p3h5---5p3---|
|-------------------------------------------5-|
|---------------------------------------------|

“Now when I woke up…early this mornin’”
|-3------------------------|
|---6----------3-----------|
|-----5b-5p3-5---5b7r3-----|
|----------------------5~~-|
|--------------------------|
|--------------------------|

“The tears were runnin all down my face”
|------------------------------3----3h6---|
|----------------------------3----3-----6-|
|-5b-5p3-------3-------3-5b7--------------|
|--------5p3-5---5p3-5--------------------|
|-----------------------------------------|
|-----------------------------------------|

“Yes I was dreamin’”
|----3----|
|----3----|
|-3----3--|
|-5----5--|
|---------|
|---------|

“Oh that some other man was takin’ my place”
|-----------------------------3-3-3-3-3-3--|
|-3-3-3-3-3-3-3-3-3-3-3-3-3---3-3-3-3-3-3--|
|-3-3-3-3-3-3-3-3-3-3-3-3-3----------------|
|---------------------------5--------------|
|------------------------------------------|
|------------------------------------------|

“Dreamed about you babe”
|-3--|
|-3--|
|-3--|
|----|
|----|
|----|

“You know I dreamed you didn’t want me around no more”
|------------------------------------------------3--|
|---------------------------------------3--------3--|
|-------------------------------3---3-5---5p3----3--|
|---3-5-----3-5----3-5-3----3s5---5-----------5--5--|
|-5-------5------5--------5-------------------------|
|---------------------------------------------------|

“Dreamed about you babe”
|--8~--8----8-10----|
|--8~----11------8----------------------------------------------------------|
|--8~-----------------------------------------------------------------------|
|-10~-----------------------------------------------------------------------|
|---------------------------------------------------------------------------|
|---------------------------------------------------------------------------|

“You know I dreamed you didn’t want me around no more”
|-----3------6p3------------------|
|---3---6~-3-----6~--6p3----------|
|-5----------------------5b7r3----|
|------------------------------5--|
|---------------------------------|
|---------------------------------|

“That’s why I’m callin you this evenin’”
|-3~--|
|-3~--|
|-3~--|
|-----|
|-----|
|-----|

“Baby tell me, cause I’ve just got to know”
|-----------------------------3-3-3-3-3-3--|
|-3-3-3-3-3-3-3-3-3-3-3-3-3---3-3-3-3-3-3--|
|-3-3-3-3-3-3-3-3-3-3-3-3-3----------------|
|---------------------------5--------------|
|------------------------------------------|
|------------------------------------------|
5:25
|--------------------------------------------------------|
|----13b15r11---------13b15r13~~----13b15----11-11-------|
|-12----------12~~-12------------12-------12-------12~~--|
|--------------------------------------------------------|
|--------------------------------------------------------|
|--------------------------------------------------------|

|-------15~--------------------------------------------------------------|
|-15-18------18p15------------------------------------15-----------------|
|------------------17b19-17p15-17-----15-17b-17p15h17----15----15-15-----|
|----------------------------------17-----------------------17-------17--|
|------------------------------------------------------------------------|
|------------------------------------------------------------------------|
5:47
|-----------8----------------------8-10------------|
|------8-11---11p8------------8-11------11p8-------|
|----8-------------8--------8----------------8-----|
|-10b----------------10--10--------------------10--|
|--------------------------------------------------|
|--------------------------------------------------|

|----------------------3------------------------------------------------|
|-----------------3-3~---6p3--------------------------------------------|
|-5b7-7r5p3---3-5------------5b-------3---------------------------------|
|-----------5---------------------3-5---5p3---3-3s5-----------------3---|
|-------------------------------5-----------5---------1-3-1---1-3s5---5-|
|---------------------------------------------------3-------3-----------|

|--------------------------------3h6--3h6~~--6-8-8b10r6------|
|--------------------------------3----3-----------------8~~--|
|-----3-5b7r3-5b7r3-5~-3---------3----3----------------------|
|-3-5--------------------5-3-----5---------------------------|
|----------------------------5~------------------------------|
|------------------------------------------------------------|

|----------------------------------------------------------------------|
|-11-13-11-13-13b-13b15~--13b15~~~~~~-13b15r13-11----------------------|
|------------------------------------------------12~~~~~~~~~~~~~~~~~~--|
|----------------------------------------------------------------------|
|----------------------------------------------------------------------|
|----------------------------------------------------------------------|

|-----------------------------------------|
|-13b15r13p11-13p11~~~--13b15r11----------|
|--------------------------------12-------|
|-----------------------------------------|
|-----------------------------------12\2--|
|-----------------------------------------|
6:59
|----15-15h18p15----15------------------------------------------------|
|-15-------------18----18b20~-18p15-----------------------------------|
|-----------------------------------17b19r15--------------17p15-------|
|--------------------------------------------17p15-----15-------17~~--|
|---------------------------------------------------17----------------|
|---------------------------------------------------------------------|

|--------------------------18b20~18-----------------------------|
|-18b20r18b20r18b20~~~~-15----------18p15-----------------------|
|-----------------------------------------17b19~19r15-----------|
|-----------------------------------------------------17p15-----|
|-----------------------------------------------------------17--|
|---------------------------------------------------------------|

|-------15-18-20-20~--20b22r18-20-----------|
|-15-18---------------------------20-20~~~~-|
|-------------------------------------------|
|-------------------------------------------|
|-------------------------------------------|
|-------------------------------------------|

|-----------------3------------------------------------|
|-----3-6-3-----3---6p3---3----------------------------|
|-5b7-------5b7---------5---5b7r3---3------------------|
|---------------------------------5---5p3---3----------|
|-----------------------------------------5---5p3h5~~~-|
|------------------------------------------------------|
“I’ve been worried all day long”
|-3-|
|-3-|
|-3-|
|-5-|
|---|
|---|
“Baby I just don’t know what to do”
|-------------------------------------|
|-------------------------------------|
|-------------------------------3h5~~-|
|---3h5-----3-5-3-----------3h5-------|
|-5-------5-------5p3---3h5-----------|
|---------------------5---------------|

“Oh I’ve been worried, I’ve been worried all day long”
|-3h6-6p3---------3--------|
|-3-------6-3-6p3---6p3----|
|-3---------------------5--|
|--------------------------|
|--------------------------|
|--------------------------|


“Baby I just don’t know what to do”
|------------------------6p3----3-----------------6-|
|----------------------3-----6----6p3---3---------3-|
|-5b7-5p3-----------3-----------------5---5p3-----3-|
|---------5p3---3h5---------------------------5-----|
|-------------5-------------------------------------|
|---------------------------------------------------|

“May sound silly to you woman”
|-3s6-6h8----6-|
|-3s6----6-8---|
|--------------|
|--------------|
|--------------|
|--------------|

“Baby but tell me my dream was not true”
|-----------------------------3-3-3-3-3-3--|
|-3-3-3-3-3-3-3-3-3-3-3-3-3---3-3-3-3-3-3--|
|-3-3-3-3-3-3-3-3-3-3-3-3-3----------------|
|---------------------------5--------------|
|------------------------------------------|
|------------------------------------------|

|------------------------------------10-----------------|
|-11-13-13b-13b15~~~-----13----11-13-------13-13--------|
|---------------------12----12----------12-------12~~~--|
|-------------------------------------------------------|
|-------------------------------------------------------|
|-------------------------------------------------------|

|----------10----------13---------------------------------------------------|
|----11-13-------11-13----13b15-13p11h13-13b15r11~~--13b15-13p11h13b15r11---|
|-12----------12----------------------------------------------------------12|
|---------------------------------------------------------------------------|
|---------------------------------------------------------------------------|
|---------------------------------------------------------------------------|

|-------15~15~---------------------------------------|
|-15-18--------18p15-------------------15------------|
|--------------------17b19-19r17p15h17----17p15------|
|-----------------------------------------------17~--|
|----------------------------------------------------|
|----------------------------------------------------|

|--------15-18-20-18p15----------------------------------------|
|--15-18----------------18p15----------------------------------|
|-----------------------------17—17b19r15----15h17-17b-17b19~~-|
|-----------------------------------------17-------------------|
|--------------------------------------------------------------|
|--------------------------------------------------------------|

|-------15--------------------------------15~-------------------------------|
|----------------18-15--------------15-18------18b20r15---------------------|
|-17b19----17b19-------17p15----------------------------17b19r15-17p15------|
|----------------------------17~~~-------------------------------------17---|
|---------------------------------------------------------------------------|
|---------------------------------------------------------------------------|

|----18b20~~-18p15-----------------15--------------------------|
|-15---------------18b20-18p15-18~-18-15-----------------------|
|----------------------------------------17b19-17b19r17p15-----|
|----------------------------------------------------------17--|
|--------------------------------------------------------------|
|--------------------------------------------------------------|

|-------------------------------------3---3--|
|-3-3-3-3-3-3-3-----------------------3--3---|
|-3-3-3-3-3-3-3—5b7r5-3---------------3-3----|
|-----------------------5-3---3-------5------|
|---------------------------5------5---------|
|--------------------------------------------|
Tap to rate this tab
# A B C D E F G H I J K L M N O P Q R S T U V W X Y Z