Song name
# A B C D E F G H I J K L M N O P Q R S T U V W X Y Z

Fleetwood Mac - Coming Your Way tab

-----------------------------------------------------------------
                   Fleetwood Mac-Coming Your Way
-----------------------------------------------------------------

Tabbed By : Aeonoptic

Tuning: Standard
*Note*-this assumes that you're listening to this in stereo and/or able to listen
to each side seperately-
in the normal mix it's quite difficult at times to tell where the second guitar is.

Guitar 1=Right Ear
Guitar 2=Left Ear

Intro:
   Bm  Em      E    Bm
E|-2---0-------7b---2--|
B|-3---0-------9b---3--|
G|-4---0-------9b---4--|
D|-4---2-------9b---4--|
A|-2---2-------7b---2--|
E|-----0---------------|
__________________________________________________________________
Congas enter
00:12
E|---------------------------------------------------------------|
B|------10-/12--12p10---------------10-/12--12p10----------------|
G|-9-11---------------11-9/11---9-11--------------11-9/11--------|
D|---------------------------------------------------------------|
A|---------------------------------------------------------------|
E|---------------------------------------------------------------|
Guitar 1
Guitars are synchronised.

E|---------------------------------------------------------------|
B|------10----------------------------10-------------------------|
G|-9-11-----11--9p7--------------9-11----11--9p7-----------------|
D|--------------------9-7/9~-----------------------9-7/9---------|
A|---------------------------------------------------------------|
E|---------------------------------------------------------------|
Guitar 2
__________________________________________________________________
00:19

E|----------10~--10p7-----------------------10~--10p7------------|
B|--------------------10-10/12~-----------------------10-10/12~--|
G|-9br11-7-------------------------9br11-7-----------------------|
D|---------------------------------------------------------------|
A|---------------------------------------------------------------|
E|---------------------------------------------------------------|
Guitar 1
Guitars still synched.

E|---------------------------------------------------------------|
B|-------------------7-------------------------------7-----------|
G|-9br11-7--9~-----9---7-----------9br11-7--9~-----9---7---------|
D|-----------------------9-------------------------------9-------|
A|---------------------------------------------------------------|
E|---------------------------------------------------------------|
Guitar 2
__________________________________________________________________
00:25
E|---------------------------------------------------------------|
B|------10-/12~--12p10----------------10-/12~--12p10-------------|
G|-9-11----------------11-/11~---9-11----------------11-/11~-----|
D|---------------------------------------------------------------|
A|---------------------------------------------------------------|
E|---------------------------------------------------------------|
Guitar 1
Guitars still synched.

E|---------------------------------------------------------------|
B|------10----------------------------10-------------------------|
G|/9-11----11~----9-7--4--------/9-11----11~----9-7--4-----------|
D|-----------------------/9~---------------------------/9~-------|
A|---------------------------------------------------------------|
E|---------------------------------------------------------------|
Guitar 2
__________________________________________________________________
00:32
E|----------10~--10p7-----------------------10~--10p7------------|
B|--------------------10-10/12~-----------------------10-10/12~--|
G|-9br11-7-------------------------9br11-7-----------------------|
D|---------------------------------------------------------------|
A|---------------------------------------------------------------|
E|---------------------------------------------------------------|
Guitar 1
Guitars still synched.

E|---------------------------------------------------------------|
B|-------------------7-------------------------------7-----------|
G|-9br11-7--9~-----9---7-----------9br11-7--9~-----9---7---------|
D|-----------------------9-------------------------------9-------|
A|---------------------------------------------------------------|
E|---------------------------------------------------------------|
Guitar 2
__________________________________________________________________
E|---------------------------------------------------------------|
B|-/12~-------------------------------/12~-----------------------|
G|-------------/11~-------------------------------/11~-----------|
D|---------------------------------------------------------------|
A|---------------------------------------------------------------|
E|---------------------------------------------------------------|
Guitar 1
   Em/B         Bm                    Em/B         Bm
E|--7------------7---------------------7------------7------------|
B|--8------------7---------------------8------------7------------|
G|--9------------7---------------------9------------7------------|
D|--9------------9---------------------9------------9------------|
A|--7------------9---------------------7------------9------------|
E|--7------------7---------------------7------------7------------|
Guitar 2 (almost inaudible, not sure of the chords)
__________________________________________________________________
00:46
  I've got things to do, I move every day
E|----------------------------------------|
B|---------10~------------12--10----------|
G|-9---11--------------------------11~----|
D|----------------------------------------|
A|----------------------------------------|
E|----------------------------------------|

00:49
  Hope you don't mind, 'cause I'm coming your way
E|---------------------------------------------------|
B|----------10----12------12-p10---12p10-------------|
G|-9---11---------------------------------11--/11----|
D|---------------------------------------------------|
A|---------------------------------------------------|
E|---------------------------------------------------|
______________________________________________________
00:53
E|-------------------------------------------------|
B|-----------------7---------------------11p9------|
G|-9br10p7-9~----9----------9br10p7-9~-------------|
D|-------------------9~----------------------------|
A|-------------------------------------------------|
E|-------------------------------------------------|
Guitar 1

E|--9------7-----7---7------9-------7----7-----7---|
B|--10-----8-----8---7------10------8----8-----7---|
G|--11-----9-----9---7------11------9----9-----7---|
D|--11-----9-----9---9------11------9----9-----9---|
A|--9------7-----7---9------9-------7----7-----9---|
E|-------------------7-------------------------7---|
Guitar 2
 00:59
 You've got things to do, you move every day
E|-------------------------------------------|
B|------------10-----12~--12p10--------------|
G|-9----11-----------------------9--/11~-----|
D|-------------------------------------------|
E|-------------------------------------------|
Guitar 1
_______________________________________________________
01:03
  I hope you don't mind, 'cause I'm coming your way
E|--------------------------------12---10--------------|
B|------------10----12-----12p10------------10--/12~---|
G|---9---11--------------------------------------------|
D|-----------------------------------------------------|
A|-----------------------------------------------------|
E|-----------------------------------------------------|
Guitar 1
________________________________________________________
01:07                                  On repeat, no last F# (G-11)
E|------------------------------------|          |
B|-12p10------------------------------|          |
G|-------/11--9~------------------11~-|          |
D|-------------------12---------------|          |
A|------------------------------------|          |
E|------------------------------------|          |
Guitar 1                                        x2
     F#m      Em          Em       Bm            |
E|---9--------7-----------7--------7--|          |
B|---10-------8-----------8--------7--|          |
G|---11-------9-----------9--------7--|          |
D|---11-------9-----------9--------9--|          |
A|---9--------7-----------7--------9--|          |
E|---------------------------------7--|          |
Guitar 2
_________________________________________________________________
 01:13
E|---------------------------------------------------------------|
B|------10-/12--12p10---------------10-/12--12p10----------------|
G|-9-11---------------11-9/11---9-11--------------11-9/11--------|
D|---------------------------------------------------------------|
A|---------------------------------------------------------------|
E|---------------------------------------------------------------|
Guitar 1
Guitars are synchronised.

E|---------------------------------------------------------------|
B|------10----------------------------10-------------------------|
G|-9-11-----11--9p7--------------9-11----11--9p7-----------------|
D|--------------------9-7/9~-----------------------9-7/9---------|
A|---------------------------------------------------------------|
E|---------------------------------------------------------------|
Guitar 2
__________________________________________________________________
 01:20
E|----------10~--10p7-----------------------10~--10p7------------|
B|--------------------10-10/12~-----------------------10-10/12~--|
G|-9br11-7-------------------------9br11-7-----------------------|
D|---------------------------------------------------------------|
A|---------------------------------------------------------------|
E|---------------------------------------------------------------|
Guitar 1
Guitars still synched.

E|---------------------------------------------------------------|
B|-------------------7-------------------------------7-----------|
G|-9br11-7--9~-----9---7-----------9br11-7--9~-----9---7---------|
D|-----------------------9-------------------------------9-------|
A|---------------------------------------------------------------|
E|---------------------------------------------------------------|
Guitar 2
__________________________________________________________________
01:28
E|-------10-12-12/14~----14----------------10-12-12/14~----14----|
B|----12--------------------12~---------12--------------------12~|
G|-11--------------------------------11--------------------------|
D|---------------------------------------------------------------|
A|---------------------------------------------------------------|
E|---------------------------------------------------------------|
Guitar 1

01:34
E|-12/10------------------------------12-10--------------------------------|
B|-------12--10/12---12/10------------------12--10/12-10-------------------|
G|-------------------------11--9/11----------------------11--------9-------|
D|----------------------------------------------------------9-9/12----9-12-|
A|-------------------------------------------------------------------------|
E|-------------------------------------------------------------------------|
Guitar 1
____________________________________________________________________________
01:47
 You've got things to do, you move every day
E|-------------------------------------------|
B|------------10-----12~--12p10--------------|
G|-9----11-----------------------9--/11~-----|
D|-------------------------------------------|
E|-------------------------------------------|
Guitar 1

 Hope you don't mind, 'cause I'm coming your way
E|---------------------------------(10br11---11)*----|
B|----------10----12------12-p10---------------------|
G|-9---11--------------------------------------------|
D|---------------------------------------------------|
A|---------------------------------------------------|
E|---------------------------------------------------|
Guitar 1
*unsure of this part, it's very faint.
_____________________________________________________________
01:54
E|---------------------------------------10p8------|
B|-----------------7-------------------------------|
G|-9br10p7-9~----9--7-------9br10p7-9~-------------|
D|--------------------9~---------------------------|
A|-------------------------------------------------|
E|-------------------------------------------------|
Guitar 1

E|---------7---------7--------------7----------7---|
B|---------8---------7--------------8----------7---|
G|---------9---------7--------------9----------7---|
D|---------9---------9--------------9--------------|
A|---------7---------9--------------7--------------|
E|-------------------7-----------------------------|
Guitar 2
______________________________________________________
02:01
I've got things to do, I move every day
E|----------------------------------------|
B|---------10---12~-------12--10----------|
G|-9---11------------------------11-9/11~-|
D|----------------------------------------|
A|----------------------------------------|
E|----------------------------------------|
Guitar 1

  I hope you don't mind, 'cause I'm coming your way
E|--------------------------------12---10--------------|
B|------------10----12-----12p10------------10--/12~---|
G|---9---11--------------------------------------------|
D|-----------------------------------------------------|
A|-----------------------------------------------------|
E|-----------------------------------------------------|
Guitar 1
02:08
E|-----------------------------------------------------------------------|
B|-12-10-------------------------------12-10---------------12------------|
G|-------/11-9---------11-9------------------/11-9-------------14-11-----|
D|---------------12----------12--9~-------------------12-----------------|
A|-----------------------------------------------------------------------|
E|-----------------------------------------------------------------------|
Guitar 1

02:14
E|---------------------------------------------------------------|
B|------10-/12~--12p10-----------------10-/12~--12p10------------|
G|-9-11----------------11-9/11----9-11----------------11-9/11----|
D|---------------------------------------------------------------|
A|---------------------------------------------------------------|
E|---------------------------------------------------------------|
Guitar 1
02:23
E|----------10~--10p7----------------------10~--10p7-------------|
B|--------------------10-/12~------------------------10-/12~-----|
G|-9br10p7------------------------9br10p7------------------------|
D|---------------------------------------------------------------|
A|---------------------------------------------------------------|
E|---------------------------------------------------------------|
Guitar 1
 02:29
E|---------------------------------------------------------------|
B|------10-------------------------10----------------------------|
G|-9-11----11~---9-7----------9-11----11~---9-7------------------|
D|-------------------9-9------------------------9-9--------------|
A|---------------------------------------------------------------|
E|---------------------------------------------------------------|
Guitar 1

02:35
E|---------------------------------------------------------------|
B|---------------------------------------------------------------|
G|-9br10p7-9----9br10p7-----9br10p7-9----9br10p7-----------------|
D|----------------------9------------------------9---------------|
A|---------------------------------------------------------------|
E|---------------------------------------------------------------|

02:41
E|------------------------------------|
B|----------------------3----2--------|
G|----------------4---------------4---|
D|-----------4------------------------|
A|-2----5-----------------------------|
E|------------------------------------|
Guitar 2 repeats this throughout the solo

Solo:

02:46
E|--------------------------------------------------------|
B|-12-15b17~--15-12----------------------------------12~--|
G|------------------14-11----------------------11-14------|
D|------------------------14-12----12-14/16~--------------|
A|------------------------------14------------------------|
E|--------------------------------------------------------|

02:51
E|-------------------------------------10-12--14~~----15b17------|
B|-12----------------------------10-12---------------------------|
G|----14-11--14--------------------------------------------------|
D|---------------14/16-14--12~-----------------------------------|
A|---------------------------------------------------------------|
E|---------------------------------------------------------------|

02:59
E|-14-12-------------------------7-----------------7-------------|
B|--------15b-12--------12------x--10-------------x--10----------|
G|---------------14--11--------x------9brp7------x------9brp7----|
D|----------------------------x-------------9---x-------------9--|
A|---------------------------------------------------------------|
E|---------------------------------------------------------------|

03:06
E|-----------------------------------------------7----------------|
B|----------------------------------3~---5b7~~~--------12--15b17~~|
G|-9---7----------------------2-4~--------------------------------|
D|---9---9-7-9---7----------4-------------------------------------|
A|-------------9----5/2~------------------------------------------|
E|----------------------------------------------------------------|

03:16
E|--------------------------------------------------------7----7-|
B|-15-12-----------------------------------------10b12------10---|
G|-------14-11-------------9br-br-br-br-br-b11~------------------|
D|-------------14b-12--9~----------------------------------------|
A|---------------------------------------------------------------|
E|---------------------------------------------------------------|

03:25
E|------------------10b12--10-7----------------------7-10--7~----|
B|--7-------------8-------------10-7--------------10-------------|
G|----10-9-7~------------------------10-9-7----------------------|
D|------------------------------------------9~-------------------|
A|---------------------------------------------------------------|
E|---------------------------------------------------------------|

03:30
E|-12b14~-------------------7------------------------------------|
B|----------------------------7----------------------------------|
G|---------------9b11~~---------9-7------------------------------|
D|----------------------------------9---7~-(or 9~?)--------------|
A|------------------------------------7--------------------------|
E|---------------------------------------------------------------|




| /  slide up
| \  slide down
| h  hammer-on
| p  pull-off
| ~  vibrato
| +  harmonic
| x  Mute note
Tap to rate this tab
# A B C D E F G H I J K L M N O P Q R S T U V W X Y Z