Song name
# A B C D E F G H I J K L M N O P Q R S T U V W X Y Z

Fleetwood Mac - As Long As You Follow tab

Hey, this tab should be correct. Wonderful 
tube tone on this into. (~=tremolo)

E|-10---------------------------------|
B|---10-13--10------------------------|
G|--------12--10-12--10---------------|
D|-----------------12--10-12--10~-12~-|
A|--------------------------12--------|
E|------------------------------------|

E|-13--10-----------------------------|
B|---13--10-13--10----------10~-------|
G|------------12--10-12--10~----------|
D|---------------------12-------------|
A|------------------------------------|
E|------------------------------------|

Please rate!
Comments at pyroman_77@yahoo.com
Josh
Tap to rate this tab
# A B C D E F G H I J K L M N O P Q R S T U V W X Y Z