Guitaretab - guitar tabs
Song name
# A B C D E F G H I J K L M N O P Q R S T U V W X Y Z

Fleetwood Mac - The Green Manalishi tab

-------------------------------------------------------------------------------
			     THE GREEN MANALISHI  Fleetwood Mac
                                      (PA Green)
-------------------------------------------------------------------------------

Tabbed by: verannion
Email: dm_hughes1@hotmail.com


Tuning: Standard

 |----------------------------------palm mute-------------------------------------
    Em                                                    Em7
e|--------------------------|--------------------------|--------------------------|
B|--------------------------|--------------------------|--------------------------|
G|--------------------------|--------------------------|--------------------------|
D|-----------5--5-----5--5--|-----5--5--5--5--5--5--5--|-----------5--5-----5--5--|
A|--7--7-7--7-7--7--7--7--|--7--7-7--7-7--7--7--7--|--5--5-5--5-5--5--5--5--|
E|--0--0-0--0--0--0-0--0--|--0--0-0--0--0--0-0--0--|--0--0-0--0--0--0-0--0--|

 ---------------------------------------------------------------------------------
                               A/E
e|--------------------------|--------------------------|--------------------------|
B|--------------------------|--------------------------|--------------------------|
G|--------------------------|--------------------------|--------------------------|
D|-----------5--5--5--5-----|--7--7--7--7--7--7--7--7--|--7--7--7--7--7--7--7-----|
A|--5--5-5--5-5--5--5-----|--4--4-4--4-4--4--4--4--|--4--4-4--4-4--4--4--0--|
E|--0--0-0--0--0--0-0--0--|--0--0-0--0--0--0-0--0--|--0--0-0--0--0--0-0--0--|

---------------------------------------------------------|
                                                         |-------Fill 1-------
    Em                                                            G/E A/E G/E
e||---------------------------|--------------------------|--------------------|
B||o--------------------------|--------------------------|--------------------|
G||---------------------------|--------------------------|----------4/6----4--|
D||---------------------------|--------------------------|----------5/7----5--|
A||o--7--7-7--7-7--7--7--7--|--7--7-7--7-7--7--7--7--|--7--7---5/7----5--|
E||---0--0-0--0--0--0-0--0--|--0--0-0--0--0--0-0--0--|--0--0-------------|

------------------|
    A/E  G/E  Em      G                         A
e|------------0---||-------------------------|--5------------|
B|------------0-o||-------------------------|--5------------|
G|--6----4----0---||--4--4--4--4--4--4--4----|--6------------|
D|--7----5----2---||--5--5--5--5--5--5--5----|--7------------|
A|--7----5----2-o||--5--5--5--5--5--5--5----|--7------------|
E|------------0---||--3--3--3--3--3--3--3----|--5------------|

 
    Em                Fsus2                     Em Ebdim Em
e|--------------------------|-----------------|--------------------------|
B|--------------------------|-----------------|--0-----------------------|
G|--------------------------|-----------------|--0-----------------------|
D|--2-----------------------|-----------------|--5--4--5--------------5--|
A|-----0--2-----0--------3--|--(3)------------|--7--6--7--------------7--|
E|-----------3-----2--1-----|-----------------|-----------0--0--0--0-----|

                      |--------------------Fill 2-----------------------|
  Ebdim Em             Em Ebdim Em                       F#dim Em  D
e|--------------------|---------------------------------|---------------|
B|--------------------|---------------------------------|---------------|
G|--------------------|---------------------------------|---------------|
D|--4--5-----4--------|--5--4--5--------------------9---|--7--5----4----|
A|--6--7-----5--------|--7--6--7--------------------10--|--9--7----5----|
E|--------0-----------|-----------0--0--0---0---0-------|---------------|

 |-----------------------------------palm mute-----------|
                                                         |------Fill 1--------
    Em                                                            G/E A/E G/E
e||---------------------------|--------------------------|--------------------|
B||o--------------------------|--------------------------|--------------------|
G||---------------------------|--------------------------|----------4/6----4--|
D||---------------------------|--------------------------|----------5/7----5--|
A||o--7--7-7--7-7--7--7--7--|--7--7-7--7-7--7--7--7--|--7--7---5/7----5--|
E||---0--0-0--0--0--0-0--0--|--0--0-0--0--0--0-0--0--|--0--0-------------|

------------------|
    A/E  G/E  Em      G                    A
e|------------0---||--------------------------|--------------------------|
B|------------0-o||--------------------------|--------------------------|
G|--6----4----0---||--4--4--4--4--4--4--4--6--|--(6)---------------------|
D|--7----5----2---||--5--5--5--5--5--5--5--7--|--(7)---------------------|
A|--7----5----2-o||--5--5--5--5--5--5--5--7--|--(7)--7--7--7--7--77----|
E|------------0---||--3--3--3--3--3--3--3--5--|--(5)--5--5--5--5--55----|

                                               |------------Fill 3------------
    Em                Fsus2                      Em Ebdim Em
e|--------------------------|-----------------||------------------------------|
B|--------------------------|-----------------||o-----------------------------|
G|--------------------------|-----------------||------------------------------|
D|--2-----------------------|-----------------||---5--4--5--------9---9---9---|
A|-----0--2-----0--------3--|--(3)------------|\o--7--6--7--------10--10--10--|
E|-----------3-----2--1-----|-----------------||------------0--0--------------|
[ Tab from: http://www.guitaretab.com/f/fleetwood-mac/38700.html ]
------------------------------------------------------------------------------------| 
                                                        ____________________________
                                                       | 1                          |
    F#dim/E     Em       D       C                     |    B  C           D        |
e|--------------------------|--------------------------|----------------------------||
B|--------------------------|--------------------------|---------------------------o||
G|--------------------------|--------------------------|----------------------------||
D|-----7--7--7-----5--5--4--|--4--2--2--------------2--|---1--2-----------4--4------||
A|-----9--9--9-----7--7--5--|--5--3--3--------------3--|---2--3-----------5--5-----o||
E|--0-----------0-----------|-----------0--0--0--0-----|---------0--0--0--------0---||
 
---------------------------------|
  ______________
 | 2                             
 |   B  C              D              Em            A9/C#
e|-------------------------------||-----------------------------|
B|-------------------------------||o----------------------------|
G|-------------------------------||-----------------------------|
D|---1--2--------------4--4------||---------0-------------2-----|
A|---2--3--------------5--5------||o--2--2-----2----2--2-----2--|
E|---------0--0--0--0--------0---||-----------------------------|


    Em            G6                    Em            A9/C#
e|-----------------------------------|----------------------------|
B|-----------------------------------|----------------------------|
G|----------------4b5r4p2p0----------|----------------------------|
D|--------0-----------------4-2------|--------0-------------2-----|
A|--2--2-----2------------------3/5--|--2--2-----2----2--2-----2--|
E|-----------------------------------|----------------------------|
 
                                   |-------palm mute---------
                                    _________________________
                                   | 1
    Em            G6               |  Em
e|---------------------------------|--------------------------|
B|---------------------------------|--------------------------|
G|------------------------0h2-0h1--|--0-----------------------|
D|--------0---------0h2/4----------|--------------------------|
A|--2--2-----2----3----------------|--7--7--7--7--7--7--7--7--|
E|---------------------------------|--0--0--0--0--0--0--0--0--|

  ---------------------------|                   |--------palm mute---------
  ___________________________  __________________
                             || 2
                             ||  Em    +
e|---------------------------||-----0--12--------|--------------------------|
B|--------------------------o||--0---------------|--------------------------|
G|---------------------------||--0---------------|--------------------------|
D|---------------------------||--5---------------|--------------------------|
A|--7--7--7--7--7--7--7--7-o||--7---------------|--7-7-7--7--7--7--7--7--|
E|--0--0--0--0--0--0--0--0---||--0---------------|--0--0--0--0--0--0--0--0--|

  -----------------------------------------------------||--------palm mute----------|
                                                            Em
e|--------------------------|--------------------------||---------------------------|
B|--------------------------|--------------------------||o--------------------------|
G|--------------------------|--------------------------||---------------------------|
D|--------------------------|--------------------------||---------------------------|
A|--7--7--7--7--7--7--7--7--|--7--7--7--7--7--7--7--7--||o--7--7--7--7--7--7--7-7--|
E|--0--0--0--0--0--0--0--0--|--0--0--0--0--0--0--0--0--||---0--0--0--0--0--0--0--0--|

 |--------------Fill 1-----------------|

          G/E A/E G/E   A/E  G/E  Em       G                   A
e|--------------------|----------------||--------------------------|
B|--------------------|------------0-o||--------------------------|
G|----------4/6----4--|--6----4----0---||--4--4--4--4--4--4--4--6--|
D|----------5/7----4--|--7----5----2---||--5--5--5--5--5--5--5--7--|
A|--7--7----5/7----5--|--7----5----2-o||--5--5--5--5--5--5--5--7--|
E|--0--0--------------|------------0---||--3--3--3--3--3--3--3--5--|


                                  Em
e|-----------------------------|--0------------|--------------------|
B|-----------------------------|--0------------|--------------------|
G|--(6)------------------------|--0------------|--------------------|
D|--(7)------------------------|--2------------|--5-4------2--------|
A|--(7)--7--7--7--7--7--7------|--2------------|------2-5----2-5-3--|
E|--(5)--5--5--5--5--5--5------|--0------------|--------------------|


                          Em Ebdim Em                     F#dim?E        Em    D
e|---------------------||------------------------------|--------------------------|
B|---------------------||o-----------------------------\--------------------------|
G|---------------------||------------------------------|--------------------------|
D|---------------/5-4--||---5--4--5--------9---9---9---|-----7--7--7-----5--5--4--|
A|--3-2--------2-------||o--7--5--7--------10--10--10--|-----9--9--9-----7-7-5--|
E0|------0-2--3---------||-----------0--0--------------|--0-----------0-----------|


    C                              B  C           D
e|--------------------------\-------------------------------||
B|--------------------------\------------------------------o||
G|--------------------------|-------------------------------||
D|--3--2--2--------------2--|------1--2-----------4--4------||
A|--5--3--3--------------3--|------2--3-----------5--5-----o||
E|-----------0--0--0--0-----|------------0--0--0--------0---||




Fill 1

        G/E A/E  G/E     A/E  G/E   Em
e|--------7--9-----7--|--9-----7-------|
B|--------8--10----8--|--10----8-------|
G|--------------------|-------------0--|
D|--------------------|-------------0--|
A|--------------------|-------------2-|
E|--0--0--------------|----------------|



Fill 2

      Em                                  D
e|----------------------------|------------------|
B|----8--9---12-----------12--|----10--9--7------|
G|----9--11--12-----------12--|----11--9--7------|
D|----------------------------|------------------|
A|----------------------------|------------------|
E|----------------------------|------------------|



Fill 3

     Em Ebdim Em                         F#dim/E              Em    D
e||---------------------------------|----------------------------------|
B||o--8--7--8-----------12--12--12--|----10--10-10-----------8--8--7--|
G||---9--8--9-----------12--12--12--|----11--11--11-----------9--9--7--|
D||---------------------------------|----------------------------------|
A||o--------------------------------|----------------------------------|
E||---------------------------------|----------------------------------|


         C                      B  C           D
e|-------------------------|----------------------------||
B|----7--5--5-----------5--|----4--5-----------7--7----o||
G|----7--5--5-----------5--|----4--5-----------7--7-----||
D|-------------------------|----------------------------||
A|-------------------------|---------------------------o||
E|-------------------------|----------------------------||



Chords

Em    A9/C#   G6   

0      0      0
0      0      0
0      0      0
5      2      9
7      4      10
x      x      x


| /  slide up
| \  slide down
| h  hammer-on
| p  pull-off
| ~  vibrato
| +  harmonic
| x  Mute note

========================================================================15 August 2007
Related for The Green Manalishi tab