Guitaretab - guitar tabs
Song name
# A B C D E F G H I J K L M N O P Q R S T U V W X Y Z

Fleetwood Mac - Earl Grey tab

I put a star above the quick strumming parts (*)
i am just a beginner. this seemed easy, first thing i figured out.
             *                      *
e|--2--1--2-2222222222---2--1--2-2222222222---------------|
b|--------------------------------------------------------|
g|--2--1--2-2222222222---2--1--2-2222222222---------------|
d|--------------------------------------------------------|
a| -------------------------------------------------------|
e|--------------------------------------------------------|
[ Tab from: http://www.guitaretab.com/f/fleetwood-mac/64063.html ]
             *                    *
e|--2--1--3-3333333333---1--2--2-2222222222---------------|
b|--------------------------------------------------------|
g|--2--1--3-3333333333---1--2--2-2222222222---------------|
d|--------------------------------------------------------|
a| -------------------------------------------------------|
e|--------------------------------------------------------|

well all i can say is that i tried. this song is not a very well known fleetwood mac
instrumental, from their Kiln house album. I will have to figure the rest out someday.
Related for Earl Grey tab
×
Earl Grey