Song name
# A B C D E F G H I J K L M N O P Q R S T U V W X Y Z

Fleetwood Mac - Dont Stop tab

-------------------------------------------------------------------------------
			DON'T STOP SOLO - Fleetwood Mac
-------------------------------------------------------------------------------

Tabbed by: Olan Byrne
Email: olan_b[at]hotmail[dot]com

Tuning: EADGBe


Chords:

Intro:- E A (repeat x8)

Song:- E D A A E D A A E D A A B B B B (repeat for rest of song)



AT:- 1:33

e|----------------------------------------------------------------12---------|
B|---------10(b12b10)p8-10---10p8--------------------8-10--10p8--------------|
G|--------------------------------9-9------------7h9-----------9-------------|
D|---------------------------------------------------------------------------|
A|---------------------------------------------------------------------------|
E|---------------------------------------------------------------------------|


                                                                       **    
e|-----10h12-12-12----12-10-12----15-15/17-15-12-12----12h15-17-17b(19-19-19-|
B|---------------------------------------------------------------------------|
G|---------------------------------------------------------------------------|
D|---------------------------------------------------------------------------|
A|---------------------------------------------------------------------------|
E|---------------------------------------------------------------------------|

        ~~~~~~~~~[widening]
   ** ** 
e|-19-19-19-19-19)-----17p15h(17b19)----17p15h(17b19)-15(b1/4)-15b(b1/4)-----|
B|-----------------------------------------------------------------------17\-|
G|---------------------------------------------------------------------------|
D|---------------------------------------------------------------------------|
A|---------------------------------------------------------------------------|
E|---------------------------------------------------------------------------|


AT:- 2:15
   
e|----pb10(12b10b12-12)------------------------------------------------------|
B|---------------------------------------------------------------------------|
G|---------------------------------------------------------------------------|
D|---------------------------------------------------------------------------|
A|---------------------------------------------------------------------------|
E|---------------------------------------------------------------------------|



| **  above notes denotes a pinched harmonic
| 
| pb  prebend note mentioned to one in parentheses.
|
| /   slide up
| \   slide down
| h   hammer-on
| p   pull-off
| ~   vibrato
| +   harmonic
| x  Mute note
===============================================================================
Tap to rate this tab
# A B C D E F G H I J K L M N O P Q R S T U V W X Y Z