Guitaretab - guitar tabs
Song name
# A B C D E F G H I J K L M N O P Q R S T U V W X Y Z

Fleetwood Mac - Landslide tab

Fleetwood Mac/The Dixie Chicks - Landslide
Tabbed and arranged by: Alejandro Manzano of Boyce Avenue

www.myspace.com/boyceavenue

video of me playing/singing it:
http://www.youtube.com/watch?v=S-NJ8MTMFY8

Tuning: E  A  D  G  B  E  (standard)(capo 3rd fret)

x = mute
^ = hammer on or pull off
/ = slide

Intro:
-------------------------------------------------|
-----1-----------3-----------1-----------3-------|
-------0---0-------0---0-------0---0-------0---0-|
---2-----2-----0-----0-----2-----2-----0-----0---|
-3-----------2-----------0-----------2-----------|
-------------------------------------------------|

-----------------------------------------------|
-----1-----------3-----------1^0---------------|
-------0---0-------0---0---------0---0-------0-|
---2-----2-----0-----0-----2-------2-------0---|
-3-----------2-----------0---------------2-----|
-----------------------------------------------|

Verse 1:
-------------------------------------------------|
-----1-----------3-----------1-----------3-------|
-------0---0-------0---0-------0---0-------0---0-|
---2-----2-----0-----0-----2-----2-----0-----0---| (Play 3x)
-3-----------2-----------0-----------2-----------|
-------------------------------------------------|

-----------------------------------------------|
-----1-----------3-----------1^0---------------|
-------0---0-------0---0---------0---0-------0-|
---2-----2-----0-----0-----2-------2-------0---|
-3-----------2-----------0---------------2-----|
-----------------------------------------------|

(Play 5x)
-----------------------------------------------------------------|
-------1---------------3---------------1---------------3---------|
---0-------0---0---0-------0---0---0-------0---0---0-------0---0-|
-----2-------2-------0-------0-------2-------2-------0-------0---|
-3-------3-------2-------2-------0-------0-------2-------2-------|
-----------------------------------------------------------------|

-----------------------------------------------------------------|
-------1---------------3---------------1---------------1---------|
---0-------0---0---0-------0---0---0-------0---0---2-------2---0-|
-----2-------2-------0-------0-------2-------2-------0-------0---|
-3-------3-------2-------2-------0-------0-----------------------|
-------------------------------------------------2-------2-------|

Chorus 1:
-------------------------------------------------------0---------|
-------3---------------3---------------0-------------------------|
---0-------0---0---2-------2---0---0-------0---0---0-------0---0-|
-----0-------0-------0-------0-------2-------2-------2-------2---|
-----------------------------------------2---------------2-------|
-3-------3-------2-------2-------0---------------0---------------|

-----------------------------------------------------------------|
-------1---------------3---------------1---------------1---------|
---0-------0---0---0-------0---0---0-------0---0---2-------2---0-|
-----2-------2-------0-------0-------2-------2-------0-------0---|
-3-------3-------2-------2-------0-------0-----------------------|
-------------------------------------------------2-------2-------|

-------------------------------------------------------0---------|
-------3---------------3---------------0-------------------------|
---0-------0---0---2-------2---0---0-------0---0---0-------0---0-|
-----0-------0-------0-------0-------2-------2-------2-------2---|
-----------------------------------------2---------------2-------|
-3-------3-------2-------2-------0---------------0---------------|
[ Tab from: http://www.guitaretab.com/f/fleetwood-mac/6480.html ]
-----------------------------------------------------------------|
-------1---------------3---------------1-------------1-------3---|
---0-------0---0---0-------0---0---0-------0---0-------0-------0-|
-----2-------2-------0-------0-------2-------2-----2-------0-----|
-3-------3-------2-------2-------0-------0-------0-------2-------|
-----------------------------------------------------------------|

Solo:
---------------------------------------------------------------|
------------0^3-----------3-3^5--3-------------------------3---|
--------0-2---------0-2/4----------2^4-4^2-0-------0^2-0-----0-|
----0-2-----------0----------------------------0^2-------0-----|
-3--------------2-----------0------2---------3---------2-------|
---------------------------------------------------------------|

-2-3-2-3-3/5\3-2-3-2^0^2^0---------|
---------------------------3-1-0---|
---------------------------------2-|
-------------------0---------------|
-0---------------------------------|
-----------------------------------|

Chorus 2:
-------------------------------------------------------0---------|
-------3---------------3---------------0-------------------------|
---0-------0---0---2-------2---0---0-------0---0---0-------0---0-|
-----0-------0-------0-------0-------2-------2-------2-------2---|
-----------------------------------------2---------------2-------|
-3-------3-------2-------2-------0---------------0---------------|

---------------------------------------------|
-------1---------------3---------------1-----|
---0-------0---0---0-------0---0---0-------0-|
-----2-------2-------0-------0-------2-------|
-3-------3-------2-------2-------0-------0---|
---------------------------------------------|

-------------------------|
-------------------------|
-4\2-20^2^0-------------|
-----0-------4-2-0-------|
-----0-------------3-0^2-|
-----2---------------3---|

---------------------------------------------------0---------|
---3---------------3---------------0-------------------------|
-------0---0---2-------2---0---0-------0---0---0-------0---0-|
-0-------0-------0-------0-------2-------2-------2-------2---|
-------------------------------------2---------------2-------|
-----3-------2-------2-------0---------------0---------------|

-----------------------------------------------------------------|
-------1---------------3---------------1---------------3---------|
---0-------0---0---0-------0---0---0-------0---0---0-------0---0-|
-----2-------2-------0-------0-------2-------2-------0-------0---|
-3-------3-------2-------2-------0-------0-------2-------2-------|
-----------------------------------------------------------------|

-----------------------------------------------------------------|
-------1---------------3---------------1-------------1-------3---|
---0-------0---0---0-------0---0---0-------0---0-------0-------0-|
-----2-------2-------0-------0-------2-------2-----2-------0-----|
-3-------3-------2-------2-------0-------0-------0-------2-------|
-----------------------------------------------------------------|

Verse 2:
-0-----------------------------------|
-1---3---------1-------------3-------|
-0---0-----------0---0---------0---0-|
-2---0-----0^2-----2-------0-----0---|
-3---2---0-------------0^2-----------|
-------------------------------------|

-0-------------------------------------|
-1---3---------1-----------1-------3---|
-0---0-----------0---0-------0-------0-|
-2---0-----0^2-----2-----2-------0-----|
-3---2---0-------------0-------2-------|
---------------------------------------|

(Play 6x)
-----------------------------------------------------------------|
-------1---------------3---------------1---------------3---------|
---0-------0---0---0-------0---0---0-------0---0---0-------0---0-|
-----2-------2-------0-------0-------2-------2-------0-------0---|
-3-------3-------2-------2-------0-------0-------2-------2-------|
-----------------------------------------------------------------|

-0-------0-|
-1---3---0-|
-0---0---5-|
-2---0---2-|
-3---2---0-|
-----------|
Related for Landslide tab
Landslide chords by Fleetwood Mac