Song name
# A B C D E F G H I J K L M N O P Q R S T U V W X Y Z

Fleetwood Mac - One Sunny Day tab

-------------------------------------------------------------------------------
			     ONE SUNNY DAY - Fleetwood Mac

                                  English Rose (1969)
-------------------------------------------------------------------------------
Tabbed by: Thomas Weder
Email: t.weder@dplanet.ch

Tuning: EADGBe

[Intro]

e|--------------------------|
B|--------------------------|
G|--------------------------|  
D|----2-0----2-0---2-0------|
A|--------2------2----------|
E|-0--------------------3-0-|


[Theme]

e|--------------------------|
B|--------------------------|
G|--------------------------|  3 x
D|----2-0----2-0---2-0------|
A|--------2------2----------|
E|---------------------3-0--|


Help me baby

e|--------------12----------|
B|-15b17--12-15-------------|
G|--------------------------|  
D|--------------------------|
A|--------------------------|
E|--------------------------|

Help me take my blues away.


e|--------------------------|
B|--------------------------|
G|--------------------------|  2 x
D|----2-0----2-0---2-0------|
A|--------2------2----------|
E|---------------------3-0--|


Help me baby

e|--------------12----------|
B|-15b17--12-15-------------|
G|--------------------------|  
D|--------------------------|
A|--------------------------|
E|--------------------------|

Help me take my blues away.


e|--------------------------|
B|--------------------------|
G|--------------------------|  2 x
D|----2-0----2-0---2-0------|
A|--------2------2----------|
E|---------------------3-0--|


Wake up one morning

e|--------------------------|
B|-15b17--15b17--15b17--12--|
G|--------------------------|  
D|--------------------------|
A|--------------------------|
E|--------------------------|


Feel good one sunny day

e|--------------------------------------|
B|-15b17--15b17--15b17--12--------------|
G|--------------------------14b16r12----|  
D|-----------------------------------14-|
A|--------------------------------------|
E|--------------------------------------|



e|--------------------------|
B|--------------------------|
G|--------------------------|  2 x
D|----2-0----2-0---2-0------|
A|--------2------2----------|
E|---------------------3-0--|


'times I've wondered

e|--------------12----------|
B|-15b17--12-15-------------|
G|--------------------------|  
D|--------------------------|
A|--------------------------|
E|--------------------------|

why it is a lonesome day.


e|--------------------------|
B|--------------------------|
G|--------------------------|  2 x
D|----2-0----2-0---2-0------|
A|--------2------2----------|
E|---------------------3-0--|


'times I've wondered

e|--------------12----------|
B|-15b17--12-15-------------|
G|--------------------------|  
D|--------------------------|
A|--------------------------|
E|--------------------------|

why it is a lonesome day.


e|--------------------------|
B|--------------------------|
G|--------------------------|  2 x
D|----2-0----2-0---2-0------|
A|--------2------2----------|
E|---------------------3-0--|


I see you walking

e|--------------------------|
B|-15b17--15b17--15b17--12--|
G|--------------------------|  
D|--------------------------|
A|--------------------------|
E|--------------------------|



See you walking away

e|--------------------------------------|
B|-15b17--15b17--15b17--12--------------|
G|--------------------------14b16r12----|  
D|-----------------------------------14-|
A|--------------------------------------|
E|--------------------------------------|


e|--------------------------|
B|--------------------------|
G|--------------------------|  2 x
D|----2-0----2-0---2-0------|
A|--------2------2----------|
E|---------------------3-0--|


[Bridge]


All I want from you

  E

e|--------------------------|
B|--------------------------|
G|--------------------------|
D|--------------------------|
A|-2-2-2----2-2-2-----------|
E|-0-0-0-3--0-0-0-3--etc.---|

Is more then I can do
There's one thing that I know
I'll never let you go
Although the people say
I shouldn't treat you this way

You better

e|--------------------------|
B|--------------------------|
G|--------------------------|
D|-2------------------------|
A|-2------------------------|
E|-0------------------------|



Help me baby

e|--------------12----------|
B|-15b17--12-15-------------|
G|--------------------------|  
D|--------------------------|
A|--------------------------|
E|--------------------------|

Help me take my blues away.


e|--------------------------|
B|--------------------------|
G|--------------------------|  2 x
D|----2-0----2-0---2-0------|
A|--------2------2----------|
E|---------------------3-0--|

Repeat (listen to the song)

| /  slide up
| \  slide down
| h  hammer-on
| p  pull-off
| ~  vibrato
| +  harmonic
| x  Mute note
===============================================================================
Tap to rate this tab
 
# A B C D E F G H I J K L M N O P Q R S T U V W X Y Z