Guitaretab - guitar tabs
Song name
# A B C D E F G H I J K L M N O P Q R S T U V W X Y Z

Fleming And John - Ugly Girl tab

Ugly Girl
by Fleming and john
Tabbed by ear, so im not 100%

[ Tab from: ]
Chords played throughout song
E:0-----0-----:         :-0-----0---:
B:2-----4-----:         :-0-----2---:
G:2(x5)-4x(5)-:(x2) then:-1(x5)-2---:
D:2-----4-----:         :-2-----2---:
A:0-----2-----:         :-2-----0---:
E:0-----0-----:         :-0-----0---:
Chorus main theme (little percussion sounds)

Guitar Riff
The beginning of the song has part 1 being played 3 times
This is played during the bridge (part that goes la la la la)
it goes part 1->1->2->1 then 1->1->2->2

Part 1                     part 2
E:---2/4------:            :-----------: 
B:0h2---------:            :0h2-2/4----:
G:------------:            :-----------:
D:------------:            :-----------:
A:------------:            :-----------:
E:------------:            :-----------:

Outro verse is played strummed lightly