Song name
# A B C D E F G H I J K L M N O P Q R S T U V W X Y Z

Fleshgod Apocalypse - The Forsaking tab

-----------------------------------------------------------------------------
                              Fleshgod Apocalypse
                                 The Forsaking
                                     Solo
                        Standard Tuning, Tabbed by ear
-----------------------------------------------------------------------------


|--------------------------------------------------------------------------|
|--------------------------------------------------------------------------|
|-7/12-7-11----------------------------------------------------------------|
|------------12-12^14---12--11-9-9^12-----12--11-9-9^12---12-11-9-9^11-8---|
|--------------------------------------------------------------------------|
|--------------------------------------------------------------------------|

|--------------------------------------------------------------------------|
|--------------------------------------------------------------------------|
|-7/12-7-11----------------------------------------------------------------|
|------------12-12^14---12--11-9-9^12-----12-11-9--12-11-9-9---------------|
|--------------------------------------------------------------9-----------|
|--------------------------------------------------------------------------|


/ = slide

i've done my best to tab it like the original song, it sounds me the same, if you find 
any mistake send me a message, i will correct it as soon as possible
Tap to rate this tab
# A B C D E F G H I J K L M N O P Q R S T U V W X Y Z