Song name
# A B C D E F G H I J K L M N O P Q R S T U V W X Y Z

Flight 409 - Beauty In A Car Crash Acoustic tab


Beauty in a Car Crash (Acoustic) - Flight 409

I tabbed this by ear by listening to no live performances,
So bear with my on the parts that seem incorrect  (especially the intro)



Intro:


|-2---------------------|
|-x---------------------|
|-4---------------------|
|-4-----4---------------|  repeat as needed
|-x-----2---4--4b(5)-2--|
|-4-----0---2--------2--|


Verse 1:


  G#m7       Eadd9    F#
|----------------------------|
|----------------------------|
|-4--------------------------|
|-4---------4--------4-------|
|-x---------2--------4-------|
|-4---------0--------2-------|
  we've...  every... unglued...


Chorus:


G#m7
How was I supposed to know

Eadd9             F#
Retrace my steps, find my way home



Verse 2:

        G#m7
So I'll push my seat back as far as it will go

Eadd9               F#
Hold on tight until my lungs collapse

          G#m7
You can't wait till your back


I'll kiss you in the face

        Eadd9             F#
You can finally see, what we were made to be



Chorus:

Same as first



Bridge:

"My lungs collapsing!"

|------------------------------------------|
|------------------------------------------|
|-44444---4444----------6666---------666---|
|-44444---44444---444---xxxx---444---xxx---|
|-xxxxx---xxxx2---222---4444---222---444---|
|-44444---44440---000----------000---------|

Please note that the number of strums is incorrect,
Just use that for general reference.


Brige Pt. 2:

      G#m7
These breaks are going out, \ 
                             \
                              \
I'm looking straight ahead     \
                                repeat
Eadd9                           as needed
Before we both go out,         /
                              /
  F#                         /
I loved you half to death   /



       G#m7           
Theres beauty in a car crash

            Eadd9                   F#
When theres beauty in the breakdown

           G#m7
This is my big city shakedown

            Eadd9               F#
When theres beauty in the breakdown



Break:


G#m7       Eadd9  F#





Then just repeat stuff





I know this tab may be far from perfect,
But hey?  Its not that bad
Hope it helps all you people who are trying to figure out the
real way to play it!

Enjoy!





Tap to rate this tab
# A B C D E F G H I J K L M N O P Q R S T U V W X Y Z