Song name
# A B C D E F G H I J K L M N O P Q R S T U V W X Y Z

Flight 409 - Broken Glass And Heart Attacks tab

----------------------------------------------------------------------------
         Broken Glass and Heart Attacks -Flight 409                        
----------------------------------------------------------------------------
Tabbed by:numberonecool
Email:numberonecool13@hotmail.com

Tuning: Drop D

  Intro and Chorus
e|-------------------------------------------------------------------------|
B|-------------------------------------------------------------------------|
G|------------------99999999-77777777-1111111111111111-9999-11-9-----------|
D|--99999-9999-999---------------------------------------------------------|
A|--99999-9999-999--77777777-55555555-9-9-9-9-9-9-9-9--7777-9--7-----------|
D|--99999-9999-999---------------------------------------------------------|

  1st Verse
e|-----------------------------|-------------------------------------------|
B|o---------------------------o|------------------------------------------|
G|-----------------------------|-------------------------------------------|
D|--9---99-9---77-7--55-5--99--|-9---------------------------------------|
A|o-9---99-9---77-7--55-5--99-o|-9---------------------------------------|
D|--9---99-9---77-7--55-5--99--|-9----------------------------------------|
       |____|<-This is not on the first time

  Post Chorus
e|-------------------------------------------------------------------------|
B|-------------------------------------------------------------------------|
G|-------------------------------------------------------------------------|
D|-------------------------------------------------------------------------|
A|-2-----5-5-7-5-4--------5-5-4-5-4--2-------------------------------------|
D|-----------------3~-2~---------------------------------------------------|
                                     ^this b is only after the second 
  2nd Verse                           chorus
e|-------------------------------------------------------------------------|
B|-------------------------------------------------------------------------|
G|-------------------------------------------------------------------------|
D|-99-9----99-9----77-7--55-5--99-9-------77777777--55555555---------------|
A|-99-9----99-9----77-7--55-5--99-9-------77777777--55555555---------------|
D|-99-9----99-9----77-7--55-5--99-9-------77777777--55555555---------------|

  Last Chorus         1st ending
e|------------------|------------------------------------------------------|
B|o----------------o|------------------------------------------------------|
G|------------------|9999-7777-11111111-99-11-9----------------------------|
D|-9999999999999999-|------------------------------------------------------|
A|o9999999999999999o|7777-5555-9-9-9-9--77-9--7----------------------------|
D|-9999999999999999-|------------------------------------------------------|

  2nd ending
e|-------------------------------------------------------------------------|
B|-------------------------------------------------------------------------|
G|-7777-9999-11111111-14141414---------------------------------------------|
D|-------------------------------------------------------------------------|
A|-5555-7777-9-9-9-9--12121212---------------------------------------------|
D|-------------------------------------------------------------------------|



| /  slide up
| \  slide down
| h  hammer-on
| p  pull-off
| ~  vibrato
| +  harmonic
| x  Mute note
============================================================================
Tap to rate this tab
 
# A B C D E F G H I J K L M N O P Q R S T U V W X Y Z