Song name
# A B C D E F G H I J K L M N O P Q R S T U V W X Y Z

Flight 409 - The Street The Sound tab

|---------------------------------------------------------------------------|
|--12-13------12-13-----10-h12---12-13----13-12-------15-13-12-13-12--------|
|-------12---------12-----------------12--------12------------------12------|
|----------9~--------9~-----------------9-----------------------------9~----|
|---------------------------------------------------------------------------|
|---------------------------------------------------------------------------|

--------------------14-15~-----15-h17-17-14-h15-15~~--|
13-12-----10-h12-13---------12------------------------|
------12----------------------------------------------|
---------9~-------------------------------------------|
------------------------------------------------------|
------------------------------------------------------|
Tap to rate this tab
 
# A B C D E F G H I J K L M N O P Q R S T U V W X Y Z