Song name
# A B C D E F G H I J K L M N O P Q R S T U V W X Y Z

Flight 409 - Before You Go tab

-------------------------------------------------------------------------------
                             Before You Go  Flight 409
-------------------------------------------------------------------------------
Tabbed by: Austin S. 
E-mail: ams9378@gmail.com

Tuning: Drop C Sharp (Db Ab Db Gb Bb eb)
I noticed there was no tab or chords for this song, so I tabbed it by ear, there 
might be some small mistakes, but sounds pretty correct. 
(Intro/Verse)
e|---------------------------------------------------------------------------|
B|-----3------------2--------------------------------------------------------|
G|---------------2----2------------------------------------------------------|
D|---4---4---2/4--------4/--7--7--7----02p0-2-0---------------(x 6)---------|
A|-2------------------------5--5--5----02p0-2-0-----------------------------|
E|-----------0--------------5--5--5----02p0-2-0-----------------------------|
(Pre Chorus Chords/Lead)
e|----------------------------|------0--------0-------5----------------------|
B|----------------------------|----7---7---7----7---7---7--------------------|
G|----------------------------|--7-------7---7----7--------7-----------------|
D|---7------7------11---------|----------------------------------------------|
A|---5------0------9----------|----------------------------------------------|
E|---5------0------9----------|----------------------------------------------|
(Chorus Chords/Lead)
e|----------------------------|---2---5---0-------(Play with chords)---------|
B|----------------------------|---3---3---3----------------------------------|
G|----------------------------|----------------------------------------------|
D|--7--7--7--11--7--7--9------|----------------------------------------------|
A|--5--0--0---9--5--0--7------|----------------------------------------------|
E|--5--0--0---9--5--0--7------|----------------------------------------------|









(Bridge Chords/Lead)
e|--------------------------|----10--9--7--5-(x 3)-7-5--7--9--------------|
B|--------------------------|------------------------------------------------|
G|--------------------------|------------------------------------------------|
D|--7---7---11--9-----------|------------------------------------------------|
A|--5---5---9---7-----------|------------------------------------------------|
E|--4---5---9---7-----------|------------------------------------------------|

e|---10-9-7--5----2---5--2--------(Play this twice)------------------------|
B|--------------------3------3-----------------------------------------------|
G|---------------------------------------------------------------------------|
D|---------------------------------------------------------------------------|
A|---------------------------------------------------------------------------|
E|---------------------------------------------------------------------------|
(Small Solo Part)
e|---------------------------------------------------------------------------|
B|---/2h3p2------------------------------------------------------------------|
G|-----------2/4\2------2----------------------------------------------------|
D|------------------2h4---4~~~-----------------------------------------------|
A|---------------------------------04h5p4-----------------------------------|
E|------------------------------------------7/9~~~---------------------------|



************************************

| /   slide up
| \   slide down
| h   hammer-on
| p   pull-off
| ~   vibrato
| +   harmonic
| x   Mute note
| b   Bend
| pb  Pre-bend
| br  Bend release
| pbr Pre-bend release
| brb Bend release bend

************************************
Tap to rate this tab
# A B C D E F G H I J K L M N O P Q R S T U V W X Y Z