Song name
# A B C D E F G H I J K L M N O P Q R S T U V W X Y Z

Flight Of The Conchords - Jenny tab

I think this is much accurate than others.....
4 comment and suggestion this is my friendster account
vindicated_Boy19@yahoo.com.....and the chord im using is from
the other jenny tab but i make it in high pitch....

tuning:standard

P=palm mute
h=hammer
b=bend
this is how intro played
INTRO:
    [P]       [P]       [P]       [P]
e|-----------------------------------------|
B|--1-1--1-1--1-1--1-1--1-1--1-1--1-1--1-1-|
G|--0-0--0-0--0-0--0-0--0-0--0-0--0-0--0-0-|
D|--2-2--2-2--2-2--2-2--2-2--2-2--2-2--2-2-|
A|--3-3--3-3--3-3--3-3--3-3--3-3--3-3--3-3-|
E|-----------------------------------------|
   [_________this is C chord_______________]

then after the keybord

e|-----17----17----17----------------------|
B|--19----16----15----14--14h15------------|
G|-----------------------------------------|
D|-----------------------------------------|
A|-----------------------------------------|
E|-----------------------------------------|

e|----17----17----17-----------------------|
B|-------16----15-----14--14h15------------|
G|-----------------------------------------|
D|-----------------------------------------|
A|-----------------------------------------|
E|-----------------------------------------|


VERSE:
     [P]                 [P]
e|--------------------|--------------------|
B|--------------------|--------------------|
G|---7-7--7-----------|--------------------|
D|---7-7--7-----------|--5-5--5------------|
A|---5-5--5-----------|--5-5--5------------|
E|--------------------|--3-3--3------------|
   D power chord        G power chord
 do this for 8times    do this for 4times
[______do this verse for twice_____________]


REFRAIN:

e|------------------------------|
B|------------------------------|
G|---7--------7----3----5-------|
D|---7----5---7----3----7-------|
A|---5----5---5----5----7-------|
E|--------3---------------------|

then

e|------------------------------|
B|------------------------------|
G|------------------------------|
D|------------------------------|
A|---5b/1-----------------------|
E|------------------------------|
  for base


CHORUS:
                  G
First you say you wont
A                 F#m
then you say you will
 G                  A
you keep me hanging on
 F#m
but we're not moving on
B  A            G
we're standing still
 A       F#m                  G
Jenny, you've got me on my knees
 G      A            G
Jenny, It's killing me

INTRO:

e|-----17----17----17----------------------|
B|--19----16----15----14--14h15------------|
G|-----------------------------------------|
D|-----------------------------------------|
A|-----------------------------------------|
E|-----------------------------------------|

VERSE:

     [P]                 [P]
e|--------------------|--------------------|
B|--------------------|--------------------|
G|---7-7--7-----------|--------------------|
D|---7-7--7-----------|--5-5--5------------|
A|---5-5--5-----------|--5-5--5------------|
E|--------------------|--3-3--3------------|
   D power chord        G power chord
 do this for 8times    do this for 4times
[______________do this  once_______________]

REFRAIN:

e|------------------------------|
B|------------------------------|
G|---7--------7----3----5-------|
D|---7----5---7----3----7-------|
A|---5----5---5----5----7-------|
E|--------3---------------------|

then

e|------------------------------|
B|------------------------------|
G|------------------------------|
D|------------------------------|
A|---5b-------------------------|
E|------------------------------|

CHORUS:
                  G
First you say you wont
A                 F#m
then you say you will
 G                  A
you keep me hanging on
 F#m
but we're not moving on
B  A            G
we're standing still
 A       F#m                  G
Jenny, you've got me on my knees
 G      A            G
Jenny, It's killing me

Bridge:
G...
(ohh ohh ooohhhh)
             B
It's killing me
(ohh ohh ooohhhh)
              G
It's killing me
(ohh ohh ooohhhh)
     A
Jenny...

CHORUS:

use this....

e|-----17----17----17----------------------|
B|--19----16----15----14--14h15------------|
G|-----------------------------------------|
D|-----------------------------------------|
A|-----------------------------------------|
E|-----------------------------------------|

e|----17----17----17-----------------------|
B|-------16----15-----14--14h15------------|
G|-----------------------------------------|
D|-----------------------------------------|
A|-----------------------------------------|
E|-----------------------------------------|

B  A            G
we're standing still
 A       F#m                  G
Jenny, you've got me on my knees
 G      A            G
Jenny, It's killing me
                   G
First you say you wont
A                 F#m
then you say you will
 G                  A
you keep me hanging on
 F#m
but we're not moving on
B  A            G
we're standing still
 A       F#m                  G
Jenny, you've got me on my knees
 G      A            G
Jenny, It's killing me


then outro...

e|-----17----17----17----------------------|
B|--19----16----15----14--14h15------------|
G|-----------------------------------------|
D|-----------------------------------------|
A|-----------------------------------------|
E|-----------------------------------------|

e|----17----17----17-----------------------|
B|-------16----15-----14--14h15------------|
G|-----------------------------------------|
D|-----------------------------------------|
A|-----------------------------------------|
E|-----------------------------------------|
Tap to rate this tab
# A B C D E F G H I J K L M N O P Q R S T U V W X Y Z