Song name
# A B C D E F G H I J K L M N O P Q R S T U V W X Y Z

Flight Of The Conchords - Too Many Dicks On The Dance Floor tab

Too Many Dicks (On The Dancefloor)
Flight of the Conchords

Tabbed by: Musicrockr


Fun song :)
Tabbed out the synth for guitar

You will have to work out the timing for yourself, but if you have heard the song
you should be able to figure it out quickly

(Note: This is tabbed from the TV version)


Too many dicks on the dance floor.....
e|---------------------|
b|---------------------|
g|---------------------| X2
d|-6-------------6-----|
a|-6-----4-2-----6-----|
e|-4---------4-2-4-----|

Goin to the party....
e|--------------------------------------------------|
b|--------------------------------------------------|
g|---------------3--------6-6----6/4--4-------------|
d|--6--6----6/4--4-----4--6-6----6/4--4-------------|
a|--6--6----6/4--4-----4--4-4----4/2--2----4-2------|
e|--4--4----4/2--2-----2-----------------------4-2--|

e|----------------------------------------------------------|
b|----------------------------------------------------------|
g|---------------3--------4-4----4/6------------4-----------|
d|--6--6----6/4--4-----4--4-4----4/6---6-4------4-----------|
a|--6--6----6/4--4-----4--2-2----2/4-------6-4--2--4-2------|
e|--4--4----4/2--2-----2-------------------------------4-2--|


Tell the players, make it understood....
e|--------------------------------------------------|
b|--------------------------------------------------|
g|---------------3--------6-6----6/4--4-------------|
d|--6--6----6/4--4-----4--6-6----6/4--4-------------|
a|--6--6----6/4--4-----4--4-4----4/2--2----4-2------|
e|--4--4----4/2--2-----2-----------------------4-2--|

e|---------------------------------------|
b|---------------------------------------|
g|---------------3--------4-4----4/6-----|
d|--6--6----6/4--4-----4--4-4----4/6-----|
a|--6--6----6/4--4-----4--2-2----2/4-----|
e|--4--4----4/2--2-----2-----------------|


Too many dicks on the dance floor.....Easy to fix!...
e|---------------------|
b|---------------------|
g|---------------------|
d|-6-------------6-----|
a|-6-----4-2-----6-----|
e|-4---------4-2-4-----|


Too many dudes with too many dicks....
e|-----------------------------------------------|
b|-----------------------------------------------|
g|---------------3-------4-4----4/6--6-----------|
d|--6--6----6/4--4-------4-4----4/6--6-----------|
a|--6--6----6/4--4-------2-2----2/4--4---4-2-----|
e|--4--4----4/2--2---------------------------4-2-|

e|--------------------------------------|
b|--------------------------------------|
g|---------------3-------4-4----6-6-----|
d|--6--6----6/4--4-------4-4----6-6-----|
a|--6--6----6/4--4-------2-2----4-4-----|
e|--4--4----4/2--2----------------------|

Bridge Section
e|-------------------------------------------------|
b|-------------------------------------------------|
g|--------------------------4-----------6----------|
d|--6-----------4-----------4-----------6----------|
a|--6--4-2------4--4-2------2--4-2------4--4-2-----|
e|--4------4-2--2------4-2---------4-2---------4-2-|


Breakdown

I just improvise, all off of this chord + the little riff

e|--- + ---------|
b|--- + ---------|
g|--- + ---------|
d|-6- + ---------|
a|-6- + -4-2-----|
e|-4- + -----4-2-|


If anything, you now have a general idea of how to play the song :)
sorry for any errors, its my first tab!
Tap to rate this tab
# A B C D E F G H I J K L M N O P Q R S T U V W X Y Z