Song name
# A B C D E F G H I J K L M N O P Q R S T U V W X Y Z

Flight Of The Conchords - Hiphop-potamus Vs Rhymenoceros tab

Okay so this is just one of the guitar intros, (umm i want to say Jemaine)
and this is from the CD version of the song

hope its alright

Palm muted
e|---------------------------------------------------------|
B|---------------------------------------------------------|
G|---------------------------------------------------------|
D|-----10-x-x-10-----9-9----------------10-x-x-10-----9-9--|
A|---------------------------------------------------------|
E|---------------------------------------------------------|

palm muted
e|---------------------------------------------------------|
B|---------------------------------------------------------|
G|---------------------------------------------------------|
D|-----10-x-x-10-----9-9----------------10-9-10-9----------|
A|---------------------------------------------------------|
E|---------------------------------------------------------|

x6

palm muted
e|---------------------------------------------------------|
B|---------------------------------------------------------|
G|---------------------------------------------------------|
D|-----10-x-x-10-----9-9----------------10-x-x-10-----9-9--|
A|---------------------------------------------------------|
E|---------------------------------------------------------|


e|---------------------------------------------------------|
b|------------8-9-10-11------------------------------------|
g|---------8-----------------------------------------------|
d|-----9---------------------------------------------------|
a|---------------------------------------------------------|
E|---------------------------------------------------------|
Tap to rate this tab
# A B C D E F G H I J K L M N O P Q R S T U V W X Y Z