Song name
# A B C D E F G H I J K L M N O P Q R S T U V W X Y Z

Flight Of The Conchords - Shes So Hot Boom Live tab

Note: This is the LIVE VERSION of the song, as seen here: 
http://www.youtube.com/watch?v=a-sawvtJxDI

The other tabs sort of get the pattern right, but the notes are mostly wrong.  
Here's a correct version!


Intro (... Oh my God, she's so hot)

G|----------------|----------------|----------------|----------------|
D|----------------|----------------|----------------|----------------|
A|------5-------1-|------5-------1-|------5-------1-|------1-------1-|  x 3
E|3-3-----3-3-----|3-3-----3-3-----|3-3-----3-3-----|3-3-----3-3-----|


Pre-chorus (I think I need a little drums ...)

G|----------------|
D|----------------|
A|------5-------1-|
E|3-3-----3-3-----|


Chorus (... People in the room doin' Boom ...)

G|----------------|----------------|
D|----------------|----------------|
A|------5-------4-|------3---01-0--|  x 7
E|3-3-----3-3-----|3-3-----3-----3-|


Bridge (See you shakin' that Boom Boom ...)

G|----------------|
D|----------------|
A|----------------|  x 7
E|3---------------|


Lead in to chorus (Enough small Boom let's Boom the Boom!)

G|----------------|
D|----------------|
A|----------------|
E|3---3---3---3-0-|


Chorus x 6


Outro (... Who's the Boom King? ...)

G|----------------|
D|----------------|
A|--------------3-|
E|3-3-----3-3-----|

G|----------------|
D|----------------|
A|-----3--------3-|  x 5
E|3-3-----3-3-----|

G|----------------|
D|----------------|
A|----------------|  x 14
E|3-3-----3-3-----|

G|----------------|----------------||
D|----------------|----------------||
A|----------------|----------------||
E|3-3-----3-------|3---3-----------||
Tap to rate this tab
 
# A B C D E F G H I J K L M N O P Q R S T U V W X Y Z