Song name
# A B C D E F G H I J K L M N O P Q R S T U V W X Y Z

Flight Of The Conchords - You Dont Have To Be A Prostitute tab

	You Donít Have To Be A Prostitute - Flight Of The Conchords 
-------------------------------------------------------------------------------
Tabbed by: Samfarr93

Tuning: Standard


Intro + Verse
e|-5-5--5--3-3--3--2-2--2---------------|--1-1--1--1-1--1--0-0--0--0-0--0-|
B|-5-5--5--5-5--5--1-1--1--/5--5-5--3-1-|--3-3--3--3-3--3--0-0--0--3-3--3-|
G|-5-5--5--5-5--5--2-2--2--/5--5-5--2-2-|--2-2--2--2-2--2--1-1--1--1-1--1-|
D|--------------------------------------|---------------------------------|(x4)
A|--------------------------------------|---------------------------------|
E|--------------------------------------|---------------------------------|
   U D  U  U D  U  U D  U                  U D  U etc			

Chorus 
e|-------------3--3--3--3-|-1--1--1--1--1--1--1--1-|
B|-5--5--5--5--3--3--3--3-|-1--1--1--1--1--1--1--1-|
G|-5--5--5--5--4--4--4--4-|-2--2--2--2--2--2--2--2-|
D|-5--5--5--5--5--5--5--5-|-3--3--3--3--3--3--3--3-|(x4)
A|-3--3--3--3--5--5--5--5-|-3--3--3--3--3--3--3--3-|
E|------------------------|------------------------|
(All upstrokes)

e|-------------3----------|-1----------------------|
B|-5-----------3----------|-1----------------------|
G|-5-----------4----------|-2----------------------|
D|-5-----------5----------|-3----------------------| (x2)
A|-3-----------5----------|-3----------------------|
E|------------------------|------------------------|
   He   cant  see his way out

e|-------------3----------|-1--1--1--1--1--1--1--1-|
B|-5-----------3----------|-1--1--1--1--1--1--1--1-|
G|-5-----------4----------|-2--2--2--2--2--2--2--2-|
D|-5-----------5----------|-3--3--3--3--3--3--3--3-| 
A|-3-----------5----------|-3--3--3--3--3--3--3--3-|
E|------------------------|------------------------|

e|-------------3--3--3--3-|-1--1--1--1--1--1--1--1-|
B|-5--5--5--5--3--3--3--3-|-1--1--1--1--1--1--1--1-|
G|-5--5--5--5--4--4--4--4-|-2--2--2--2--2--2--2--2-|
D|-5--5--5--5--5--5--5--5-|-3--3--3--3--3--3--3--3-|
A|-3--3--3--3--5--5--5--5-|-3--3--3--3--3--3--3--3-|
E|------------------------|------------------------|

Verse
Chorus

Outro
e|-------------3--3--3--3-|-1--1--1--1--1--1--1--1-|
B|-5--5--5--5--3--3--3--3-|-1--1--1--1--1--1--1--1-|
G|-5--5--5--5--4--4--4--4-|-2--2--2--2--2--2--2--2-|
D|-5--5--5--5--5--5--5--5-|-3--3--3--3--3--3--3--3-|(x2)
A|-3--3--3--3--5--5--5--5-|-3--3--3--3--3--3--3--3-|
E|------------------------|------------------------|


U - Upstroke
D - Downstroke
/ - Slide
Tap to rate this tab
# A B C D E F G H I J K L M N O P Q R S T U V W X Y Z