Song name
# A B C D E F G H I J K L M N O P Q R S T U V W X Y Z

Flight Of The Conchords - Im Not Crying chords

Highlighted       Show chord diagrams
These are all the chords you will need. Its perfect.
     C#m  C?   G#   Fm    C   C7   C/B  Am    F    G
e|----3----3----4----1----0----0----0----0----1----3----||
B|----4----4----4----1----1----0----1----1----1----0----||
G|----5----4----5----1----0----0----0----2----2----0----||
D|----5----5----6----3----2----2----0----2----3----0----||
A|----3----3----6----3----3----3----2----0----3----2----||
E|----X----X----4----1----X----X----X----X----1----3----||


C#m               C? 
So, you're leaving, aren't you?
          G#                             Fm
I can tell, because i can see you leaving
C#m                                  C?
But if you're trying to break my heart
                                 G#
Your plan is flawed from the start
                                    Fm
You can't break my heart, it's liquid
                            C#m
It melted when I met you
                C?
And as you leave
                     G#
Don't' turn back to me
                         Fm
Don't turn around and see if I'm crying
C               C7
   I'm not crying
                     Am
It's just been raining
Am
on my face
C                                        C7         
And if you think you see some tear tracks down my cheeks
Please. 
Am         Am
  Pleasee, don't tell my mates
C               C7  Am              Am
   I'm not crying No, I'm not crying
C                    C7
   And if I am crying It's not because of you
                         Am                                        Am
It's because I'm thinking about a friend of mine who you don't know who is dying That's right, dying

Here is the tab for this part:

e|----4--4---7--7---10--10---13--13----||
B|----3--3---6--6---9---9----12--12----||
G|----4--4---7--7---10--10---13--13----||
D|-------------------------------------||
A|-------------------------------------||
E|-------------------------------------||

These aren't tears of sadness because you're leaving me I've just been cutting onions

C      C7          Am
   I'm making a lasagna
        Fm
For one
Fm                Fm
Oh, I'm not crying No
C
 There's just a little bit of dust in my eye
C/B
That's from the path that you made when you said your goodbye
Am
I'm not weeping because you won't be here to hold my hand
Am
For your information there's an inflammation in my tear gland
C
I'm not upset because you left me this way
C/B
My eyes are just a little sweaty today
             Am 
They've been looking around They're like searching for you
             Am
They've been looking for you Even though I told them not to

e|----4--4---7--7---10--10---13--13----||
B|----3--3---6--6---9---9----12--12----||
G|----4--4---7--7---10--10---13--13----||
D|-------------------------------------||
A|-------------------------------------||
E|-------------------------------------||


These aren't tears of sadness They're tears of joy I'm just laughing

C     C/B    Am
Ha ha ha-ha ha

Fm

Fm
I'm sitting at this table called love
Fm
Staring down at the irony of life
C                             C/B
How come we've reached this fork in the road
Am
And yet it cuts like a knife?
        C   C/B
I'm not crying
        Am  G 
I'm not crying
         F
I'm not cry-y-y-y-
  Fm    C 
y-y-y-y-ing

Enjoy And rate 
Tabbed by ME!!
Tap to rate this tab
# A B C D E F G H I J K L M N O P Q R S T U V W X Y Z