Song name
# A B C D E F G H I J K L M N O P Q R S T U V W X Y Z

Flight Of The Conchords - Hiphop-potamus Vs Rhymenocerous tab

Help us improve GuitareTab! Take a short survey!
-------------------------------------------------------------------------------
	HIP HOPOPOTAMUS MEETS THE RHYMENOCEROS - Flight of The Conchords
-------------------------------------------------------------------------------
Tabbed by: Kevin Holloway
Email: Kevoway@gmail.com

So this is pretty much it. As I'm sure you know from hearing it (assuming that you have
it), it's pretty repetative. I am sorry that I don't have all the parts written out at
moment. They are all made up of what is here at the moment though. In time I will 
fix it up and rewrite it though.

Tuning:E A D G B e

Intro:                                  (1)           (2)        (3)
e|/------------------------------------|-------------\----------\-----|
B||------------------------------------|-------------|----------|-----|
G||------------------------------------|-------------|----------|-----|
D||------------------------------------|--2-----2----|------2---|-----|
A||-0--0-2p0-0--2--2-3p2---------------|-------------|-3------3-|-3---|
E|\----------------------0--1--1-3p1-1-|-----0-----0-/---4------/---4-|

   Am                              F7              E7
e|--5-------------------------------1--------1------0-------3----------------|
B|--5----x-8----x--------x----x-----1----x---1------0---x---3----x-----------|
G|--5-------------------------------2--------2------1------------------------|
D|--7----x------x--------x----x-----1----x----------0---x--------x-----------|
A|--7-------------------------------3---------------2------------------------|
E|--5----------------7--------------1---------------1------------------------|
Related for Hiphop-potamus Vs Rhymenocerous tab