Song name
# A B C D E F G H I J K L M N O P Q R S T U V W X Y Z

Flight Of The Conchords - Hiphop-potamus Vs Rhymnoceros tab

Help us improve GuitareTab! Take a short survey!
-------------------------------------------------------------------------------
	   HIPHOPOPOTAMUS VS. RHYMENOCEROS - Flight of the Conchords
-------------------------------------------------------------------------------
Tabbed by:azimuth457
Email:azimuth457@gmail.com

Tuning:Standard

Here's the rap battle between the Rhymenoceros and the Hiphopopotamus

Intro(only in certain videos i think)
e|--------------------------------------------|
B|--131313-12-131313-12-131313-12-13-12-13-12-|
G|--141414-13-141414-13-141414-13-14-13-14-13-|
D|--------------------------------------------|
A|--121212-11-121212-11-121212-11-12-11-12-11-|
E|--------------------------------------------|

Verse Chords:
e|--5-(2)-1--0--|
B|--5--4--1--0--|
G|--5--4--2--1--|
D|--7--4--3--0--|
A|--7--2--3--2--|
E|--5-----1--0--|

Jermaine's rapalicious bass-like shiz: (when he speaks he only hits
5 on E, 2 on A, 1 on E, and 0 on E)

e|------------------------------------------------|
B|------------------------------------------------|
G|------------------------------------------------|
D|-------------------------------------------2----|
A|--------------2-2-2h3p2----------------3-0---3--|
E|--5-5-5h7p5-5----------0--1-1-1h3p1-1-----------|

Please rate!


|( ) optional note
| /  slide up
| \  slide down
| h  hammer-on
| p  pull-off
| ~  vibrato
| +  harmonic
| x  Mute note
===============================================================================
Related for Hiphop-potamus Vs Rhymnoceros tab