Song name
# A B C D E F G H I J K L M N O P Q R S T U V W X Y Z

Flight Of The Conchords - Hiphop-potamus Vs Rhymenoceres tab

Help us improve GuitareTab! Take a short survey!
Tabbed by: .::BigAl::.

Heres a funny song by Flight of The Conchords.
This is the live version of this song.

Intro
GTR.1 (solo)
e]-------------------------][-------------------------]
B]8-8-77-8-8-77-8-8-77-8787][8-8-77-8-8-77-8-8-77-8787]
G]8-8-77-8-8-77-8-8-77-8787][8-8-77-8-8-77-8-8-77-8787]
D]8-8-77-8-8-77-8-8-77-8787][8-8-77-8-8-77-8-8-77-8787]
A]8-8-77-8-8-77-8-8-77-8787][8-8-77-8-8-77-8-8-77-8787]
E]-------------------------][-------------------------]
                                             GTR.2 comes in


e]-------------------------]
B]8-8-77-8-8-77-8-8-77-8877]
G]8-8-77-8-8-77-8-8-77-8877]
D]8-8-77-8-8-77-8-8-77-8877]
A]8-8-77-8-8-77-8-8-77-8877]
E]-------------------------]


GTR.2 
e]-------------------------]
B]-------------------------]
G]-------------------------]
D]-------------------------]
A]--------2----------------]
E]11\5---------1----0------]

e]-------------------------]                         e]---------------------]
B]7-x-x-8-x-x-3-x-x-2-x-x--]                         B]-10-10-10-10-10-10-10]
G]7-x-x-8-x-x-3-x-x-2-x-x--]                         G]-10-10-10-10-10-10-10]
D]7-x-x-8-x-x-3-x-x-2-x-x--]                         D]--8--8--8--8--8--8--8]
A]7-x-x-8-x-x-3-x-x-2-x-x--]                         A]---------------------]
E]-------------------------]---x20 around 13 go      E]---------------------]

GTR.1(with GTR.2)
e]-------------------------]
B]-------------------------]
G]-------------------------]
D]-------------------------]
A]--------2----------------]
E]5------------1----0------]---x20

START BEATBOXING

come in with same bassline before with GTR.1

Do a tap harmonic at 12 with GTR.2 (listen to song)
after that come in with same part with GTR.2 over and over until lyrics end.
Related for Hiphop-potamus Vs Rhymenoceres tab