Guitaretab - guitar tabs
Song name
# A B C D E F G H I J K L M N O P Q R S T U V W X Y Z

Flight Of The Conchords - Bret You Got It Going On tab

-------------------------------------------------------------------------------
	       BRET YOU GOT IT GOING ON - Flight Of The Conchords
-------------------------------------------------------------------------------
Tabbed by:azimuth457
Email:azimuth457@gmail.com

Tuning:Standard

I haven't written a tab in a while, so bear with me.
Also, I haven't finished the outro, so i'll add that later.

Verse:
e|---x--x--x--x-x--|
B|---6--5--3--8-5--|
G|---7--3--1--9-3--|
D|---7--5--3--9-5--|
A|---5--3--1--7-3--|
E|---x--x--x--x-x--|
[ Tab from: http://www.guitaretab.com/f/flight-of-the-conchords/96121.html ]
Chorus:
e|---5--5--1--3--3--5--3--5-5--|
B|---6--5--1--3--3--5--5--6-6--|
G|---5--6--2--4--3--5--3--5-5--|
D|---7--5--1--3--3--5--5--7-7--|
A|---5--7--3--5--5--7--3--5-8--|
E|---x--5--1--3--3--5--x--x-x--|

That is about all I need to tab, because the only difference later on with the chorus is that
jemaine will go one fret higher for the chorus twice.
in other words, you'll be barring the 5th fret, then the 6th, and when he says "ooh, if one of us 
was a lady", you start on the 7th.


| /  slide up
| \  slide down
| h  hammer-on
| p  pull-off
| ~  vibrato
| +  harmonic
| x  Mute note
===============================================================================
Related for Bret You Got It Going On tab
×
Bret You Got It Going On