Song name
# A B C D E F G H I J K L M N O P Q R S T U V W X Y Z

Fliker - Reformasi tab

[INTRO]

G-----------------------------------------------------------------------|
D-----------------------------------------------------------------------|
A--------5-5-7-5-8-7-8------8-7-8-10-8-10------10-8-10/12-10-8-10-------|
E----------------------6-6-----------------8-8--------------------------|  [2X]

E-----------------------------------------| |-------------------------------------10b--|
B---5-10-8-6-5-5-6------------------------| |---5-10-8-6-5-5-6-------8-10-11h10p-8-----|
G-----------------7-9-10-12-10-9-10-7-9---| |------------------7-9-10------------------|
D-----------------------------------------| |------------------------------------------|  [2X]

(Play this during solo x2)


www.facebook.com/flikerband
Tap to rate this tab
# A B C D E F G H I J K L M N O P Q R S T U V W X Y Z