Song name
# A B C D E F G H I J K L M N O P Q R S T U V W X Y Z

Flint - Piggy tab

Help us improve GuitareTab! Take a short survey!
Song:      Piggy
Album:     Device #1
Band:      Flint
Guitarist: Jim Davies
Tabbed by: 1550
http://www.nekozine.co.uk/flint/index.html

TUNING:    DGDGBe
EQUIPMENT: PRS Customs into Marshall JCM800 100w TSL. 

                            Notation:
 
                        #b(#) = bend to note in bracket.
                            * = harmonic.
                            " = Palm mute.
                            ~ = Vibrato.
.......................................................................
.......................................................................

INTRO:

E|---------------------------------------------------------------------|
B|---------------------------------------------------------------------|
G|---------------------------------------------------------------------|
D|---------------------------------------------------------------------|
G|-------------------------(5)(5)(5)(5)(5)(5)(5)-----------------------|
D|--5--5--5--5--5--5--5--5--5--5--5--5--5--5--5------------------------|


E|---------------------------------------------------------------------|
B|---------------------------------------------------------------------|
G|--------------------------5--5--5--5--5--5--5--5---------------------|
D|---------------------------------------------------------------------|
G|---------------------------------------------------------------------|
D|--5--5--5--5--5--5--5--5--5--5--5--5--5--5--5--5---------------------|

........................................................................

E|---------------------------------------------------------------------|
B|---------------------------------------------------------------------|
G|---------------------------------------------------------------------|
D|---------------------------------------------------------------------|
G|---------------------------------------------------------------------|
D|--5\0-------5--3--5--6--------3--3--3--3--3--3--3--------------------|
                                *  *  *  *  *  *  *


E|--------------------------------------------------------------------||
B|--------------------------------------------------------------------||
G|--------------------------------------------------------------------||
D|--------------------------------------------------------------------||
G|-----------------------------3--------------------------------------||
D|--5\0-------5--3--5--6-----------3--3--3--3--3--3-------------------||
                               *   *  *  *  *  *  *

E|--------------------------------|-----------------------------------||
B|--------------------------------|-----------------------------------||
G|--------------------------(x3)--|-----------------------------------||
D|--------------------------------|-----------------------------------||
G|--------------------------------|-----------------------------------||
D|--5\0-------5--3--5--6----------|--5\0------5--5--4--3~-------------||

........................................................................

VERSE:

E|----------------------------------|---------------------------------||
B|----------------------------------|---------------------------------||
G|----------------------------(x3)--|---------------------------------||
D|----------------------------------|---------------------------------||
G|----------------------------------|---------------------------------||
D|--5--0--5--0--5--0--3--0----------|--5--0--0--0--5--4--3~-----------||
    "  "  "  "  "  "  "  "             "  "  "  "  
"...girls, rockin with the bass..."

........................................................................

Fill#1: (Rhythm)

E|---------------------------------------------------------------------|
B|---------------------------------------------------------------------|
G|---------------------------------------------------------------------|
D|---------------------------------------------------------------------|
G|---------------------------------------------------------------------|
D|--8--8--8--8--8--8--8--8---------6--6--6--6--6--6--6--6--------------|


Fill#1 w/wha: (lead)

E|--------------------------------------------------------------------||
B|--------------------------------------------------------------------||
G|--/15--15--15--15--15--15--15\--/13--13--13--13--13--13--13\--------||
D|--------------------------------------------------------------------||
G|--/15--15--15--15--15--15--15\--/13--13--13--13--13--13--13\--------||
D|--------------------------------------------------------------------||
                                
                                "..piggy in the middle......."
                                  
........................................................................

CHORUS (Rhythm):

E|-----------------------------------|--------------------------------||
B|-----------------------------------|--------------------------------||
G|--5\0------5--3--5--6------(x3)----|--5\0-------8--8--8--8--8-------||
D|--5\0------5--3--5--6--------------|--5\0-------8--8--8--8--8-------||
G|--5\0------5--3--5--6--------------|--5\0-------8--8--8--8--8-------||
D|--5\0------------------------------|--5\0---------------------------||

"..yeah yeah, i'm invisible..."


CCHRUS (Lead) w/wha: 

E|--/6--6--6\-----/6--6--6\-----/6--6--6\-----/6--6--6\----------------|
B|-------------1-------------1-------------1-------------1-------------|
G|---------------------------------------------------------------------|
D|---------------------------------------------------------------------|
G|---------------------------------------------------------------------|
D|---------------------------------------------------------------------|


E|--/6--6--6\-----/6--6--6\-----/6--6--6\----|-/6h8p7p6---/3-----------|
B|-------------1-------------1-------------1-|---------8\1----1--1-----|
G|-------------------------------------------|-------------------------|
D|-------------------------------------------|-------------------------|
G|-------------------------------------------|-------------------------|
D|-------------------------------------------|-------------------------|

repeat first lead section.

E|--/6--6--6\--------8------------------------------------------------||
B|-------------1-----11b(13)------------------------------------------||
G|--------------------------------------------------------------------||
D|--------------------------------------------------------------------||
G|--------------------------------------------------------------------||
D|--------------------------------------------------------------------||

.......................................................................

E|---------------------------------------------------------------------|
B|---------------------------------------------------------------------|
G|--7-----------------------8------------------------------------------|
D|--7-----------------------8------------------------------------------|
G|--7--2--2--2--2--2--2--2--8--2--2--2--2--2--2--2---------------------|
D|-----0--0--0--0--0--0--0-----0--0--0--0--0--0--0---------------------|
       "  "  "  "  "  "  "     "  "  "  "  "  "  "
"......i'm havin fun keep hangin on......"

E|--------------------------------------------------------------------||
B|--------------------------------------------------------------------||
G|--7-----------------------------------------------------------------||
D|--7-----------------------------------------------------------------||
G|--7--2--2--2--2--2--2--2--5b(6)--------5b(6)------------------------||
D|-----0--0--0--0--0--0--0---------0--0---------0--0------------------||
       "  "  "  "  "  "  "         "  "         "  "

E|---------------------------------------------------------------------|
B|---------------------------------------------------------------------|
G|--7-----------------------8------------------------------------------|
D|--7-----------------------8------------------------------------------|
G|--7-----------------------8------------------------------------------|
D|-----0--0--3--3--3--3--0-----0--0--3--3--3--3--0---------------------|
             *  *  *  *              *  *  *  *  

E|--------------------------------------------------------------------||
B|--------------------------------------------------------------------||
G|--7-----------------------------------------------------------------||
D|--7-----------------------------------------------------------------||
G|--7-----------------------------------------------------------------||
D|-----0--0--3--3--3--3--0--10(11)--0--0---10(11)---0--0--------------||
             *  *  *  *     *       "  "   *        "  "

........................................................................

w/wah: (over intro riff)

E|--------------------------------------------------------------------||
B|--------------------------------------------------------------------||
G|--4b(6)~~~~~~~~------4b(5)---4b(5)---4b(5)---4/6h76p4b(6)~~~~~~-----||
D|--------------------------------------------------------------------||
G|--------------------------------------------------------------------||
D|--------------------------------------------------------------------||

........................................................................

Fill#2: (over verse riff)


E|---------------------------------------------------------------------|
B|---------------------------------------------------------------------|
G|--12--12--12--12--12----------15--15--15--15-------------------------|
D|--10--10--10--10--10----------13--13--13--13-------------------------|
G|--12--12--12--12--12----------15--15--15--15-------------------------|
D|---------------------------------------------------------------------|


E|--------------------------------------------------------------------||
B|--------------------------------------------------------------------||
G|--12--12--12--12--12----------15--15--15----------------------------||
D|--10--10--10--10--10----------13--13--13----------------------------||
G|--12--12--12--12--12----------15--15--15----------------------------||
D|------------------------------------------5--4--3~------------------||

........................................................................

end with:

E|--------------------------------------------------------------------||
B|--------------------------------------------------------------------||
G|--------------------------------------------------------------------||
D|--------------------------------------------------------------------||
G|--------------------------------------------------------------------||
D|--5\0-----5--3--5--6------------------------------------------------||

........................................................................
........................................................................
Related for Piggy tab