Guitaretab - guitar tabs
Song name
# A B C D E F G H I J K L M N O P Q R S T U V W X Y Z

Flip Kowlier - Miss Belgie tab

Miss Belgie

by Flip Kowlier


Intro


E|-------3--------------1----------------0---------------3---------|
B|----1-----1--------1------1---------1-----1--------1-------1-----|
G|-----------------------------------------------------------------|
D|-----------------------------------------------------------------|
A|-------------------------------3---------------2-----------------|
E|-0-------------1-------------------------------------------------|

   Herhaal(repeat) 2 x

Vers


E|-------3--------------1----------------0---------------3---------|
B|----1-----1--------1------1---------1-----1--------1-------1-----|
G|-----------------------------------------------------------------|
D|-----------------------------------------------------------------|
A|-------------------------------3---------------2-----------------|
E|-0-------------1-------------------------------------------------|

   Tis een kwestie van de goeie keuzes.....

Refrein

E|--0-------------------3----1-|
B|--1-------------------1----1-|
G|--0-------------------2----2-|
D|--2--------0-2---5---(0)---3-|
A|--3---0--3-------------------|
E|-----------------------------|

   Miss Belgie....

[ Tab from: http://www.guitaretab.com/f/flip-kowlier/84932.html ]
E|--0-------------------3----1-|
B|--1-------------------1----1-|
G|--0-------------------2----2-|
D|--2--------0-2---5---(0)---3-|
A|--3---0--3-------------------|
E|-----------------------------|

   Groot gevaar...

(miss belgie, geen gemaar)


Laatste verschillend stuk (jeweetwel)


E|---------3---------3----------1----------0--3-|
B|-------1---1-----1---1-----1----1-----1-------|
G|----------------------------------------------|
D|----------------------------------------------|
A|---3------------------------------------------|
E|---------------2----------1---------0---------|

         miss belgieuh ....     de rest vad basnoten weet ik ni zo goed maar het lichte 
gedeelte slaat altijd op :


E|----0--3--|
B|-1--------|
G|----------|
D|----------|
A|----------|
E|----------|

Outro


E|-------3--------------1----------------0---------------3---------|
B|----1-----1--------1------1---------1-----1--------1-------1-----|
G|-----------------------------------------------------------------|
D|-----------------------------------------------------------------|
A|-------------------------------3---------------2-----------------|
E|-0-------------1-------------------------------------------------|

   Miss Belgie,kga u laten
Related for Miss Belgie tab