Song name
# A B C D E F G H I J K L M N O P Q R S T U V W X Y Z

Flip Kowlier - De Grootste Lul Vant Stad tab

-----------------------------------------------------------------------------
		De grootste lul van't stad - Flip kowlier
-----------------------------------------------------------------------------
Tabbed by:

intro:1ste gitaar
e|-----------------------------------------------------------------------|
B|----------------------------------------------5~-----------------------|
G|-----------------------------------------------------------------------|
D|----------------2~-----------------------------------------------------|
A|-------------------------------4~------------------------------4---0---|
E|---6-0-0-6-0-0----3-0-0-3-0-0-----6-0-0-6-0-0-----3-0-0-3-0-0----4-----|

intro vers:2de+1ste gitaar
e|---9~(de 1ste gitaar speelt dit de 3de keer)---|
B|-----------------------------------------------|
G|---666---------9999999-------------------------|
D|---666-666-777-9999999-------------------------|        X4
A|---444-666-777-7777777-------------------------|
E|-------444-555---------------------------------|

vers:2de gitaar
e|-------------------------|
B|-------------------------|
G|-------------------------|
D|---666---------9999999---|     X8
A|---444-666-777-7777777---|
E|-------444-555-----------|

chorus:1ste+2de gitaar
e|-------------------------------------------(1ste gitaar)---------|
B|-------------------------------------------9\7--7\5--5/7--7~-----|
G|---666---------9999999-666---------9999999-6666-----------9999---|
D|---666-666-777-9999999-666-666-777-9999999-6666-6666-7777-9999---|
A|---444-666-777-7777777-444-666-777-7777777-4444-6666-7777-7777---|
E|-------444-555-------------444-555--------------4444-5555--------|

e|-------------------------|
B|-------------------------|
G|---666---------9999999---|
D|---666-666-777-9999999---|
A|---444-666-777-7777777---|
E|-------444-555-----------|

vers:2de gitaar
e|-------------------------|
B|-------------------------|
G|-------------------------|
D|---666---------9999999---|     X4
A|---444-666-777-7777777---|
E|-------444-555-----------|

bridge:1ste+2de gitaar
e|---7~(1ste gitaar)-----------------------|
B|-----------------------------------------|
G|-----------------------------------------|
D|---66666666-44444444-66666666-99999999---|
A|---44444444-22222222-44444444-77777777---|
E|-----------------------------------------|

chorus:1ste+2de gitaar
e|-------------------------------------------(1ste gitaar)------------|
B|-------------------------------------------9\7--7\5-4h5/7--7~-------|
G|---666---------9999999-666---------9999999-6666-----------9999------|
D|---666-666-777-9999999-666-666-777-9999999-6666-6666-7777-9999------|
A|---444-666-777-7777777-444-666-777-7777777-4444-6666-7777-7777------|
E|-------444-555-------------444-555--------------4444-5555-----------|

e|-------------------------|
B|-------------------------|
G|---666---------9999999---|
D|---666-666-777-9999999---|
A|---444-666-777-7777777---|
E|-------444-555-----------|

vers:2de gitaar
e|-------------------------|
B|-------------------------|
G|-------------------------|
D|---666---------9999999---|     X4
A|---444-666-777-7777777---|
E|-------444-555-----------|

chorus:1ste+2de gitaar
e|-------------------------------------------(1ste gitaar)------------|
B|-------------------------------------------9\7--7\5-4h5/7--7~-------|
G|---666---------9999999-666---------9999999-6666-----------9999------|
D|---666-666-777-9999999-666-666-777-9999999-6666-6666-7777-9999------|
A|---444-666-777-7777777-444-666-777-7777777-4444-6666-7777-7777------|
E|-------444-555-------------444-555--------------4444-5555-----------|

e|-------------------------|
B|-------------------------|
G|---666---------9999999---|
D|---666-666-777-9999999---|
A|---444-666-777-7777777---|
E|-------444-555-----------|

(speciale)chorus:1ste+2de gitaar
e|-------------------------------------------(1ste gitaar)---------|
B|-------------------------------------------9\7--7\5--5/7--7~-----|
G|---666---------9999999-666---------9999999-6666-----------9999---|
D|---666-666-777-9999999-666-666-777-9999999-6666-6666-7777-9999---|
A|---444-666-777-7777777-444-666-777-7777777-4444-6666-7777-7777---|
E|-------444-555-------------444-555--------------4444-5555--------|

e|-------------------------|
B|-------------------------|
G|---666-------------------|
D|---666-666-777-2222222---|
A|---444-666-777-2222222---|
E|-------444-555-0000000---|

outro:1ste gitaar
e|--------------------------------------------------------------------|
B|-----------------------------------------------5~-------------------|
G|--------------------------------------------------------------------|
D|----------------2~--------------------------------------------------|
A|-------------------------------4~------------------------------4~---|
E|---6-0-0-6-0-0----3-0-0-3-0-0-----6-0-0-6-0-0-----3-0-0-3-0-0-------|

e|----------------------------------------------------------------------|
B|---(2de gitaar)-------------------------------------------------------|
G|---9~99999999999999999999999999999999999999999999999999999999999~-----|
D|----------------2~-----------------------------2~---------------------|
A|-------------------------------4~------------------------------4~-----|
E|---6-0-0-6-0-0----3-0-0-3-0-0-----6-0-0-6-0-0-----3-0-0-3-0-0---------|

geniet ervan!
Flip kowlier rulezzzzzzz
geef deze tab aub sterren en eventuele verbeteringen

| /  slide up
| \  slide down
| h  hammer-on
| p  pull-off
| ~  vibrato
| +  harmonic
| x  Mute note
=============================================================================
Tap to rate this tab
# A B C D E F G H I J K L M N O P Q R S T U V W X Y Z